Oops, an error
Loading. Please wait.

Burnout 3D Danao Dancel Dumas Version Acoustic tab

2,536 views 87 this week
2 commentsread comments
1 2 3 4 5
x 3
add to favorites
×
Save as Personal and add changes to this tab that will be seen only by you. Learn more ›
×
You can save this tab as Personal to edit and correct it or add notes. All changes will be seen only by you. Learn more »
launch autoscroll
font size
0
reset
how to read this tab
guitar tuner
edit
Autoscroll
slow
fast
+/-
esc
set tempo
stop
About this tab version
This tablature is tabbed by ear. Based on the version that was done as an official movie soundtrack in I'm Drunk I Love You. Was this info helpful? Yes No
Burnout - Sugarfree (3D: Danao, Dancel, Dumas version)
Original Artist is Sugarfree (where Ebe Dancel was before, and always will be)

------------Standard Tuning (EADGbe)------------
----------------Capo @ 4th Fret-----------------


Don't forget to rate! :)

Most parts of the song requires plucking,
I put here the chords they make as a whole.

[Intro]
(Key of E)
E|--------------|------------------|
B|---0------0---|---0h1---0----1---|
G|---0------0---|---0h2---0----2---|
D|---2------3---|------------------|
A|---3------3---|------------------|
E|---3----------|------------------|

    G/C    G7/C

(3 1/2 times)

[End chord Intro]
E|-------|
B|---1---|
G|---2---|
D|---3---|
A|---3---|
E|-------|

     F

[Verse 1]
E|----------------|
B|---0------1-----|
G|---0------2-----|
D|---2------3-----|
A|---3------3-----|
E|---3------------|

    G/C    G7/C

[for 16x (O wag kang tumingin...
+ Dahil katulad mo...)]


[Bridge to Chorus 1]
E|-------|
B|---3---|
G|---0---|
D|---0---|
A|---2---|
E|-------|

    G/B

[Chorus 1]
E|---0---------------|
B|---1-----0-----1---|
G|---2-----0-----2---|
D|---0-----2-----3---|
A|---------2-----3---|
E|---------0-----1---|

    D9    Em     F


[Bridge to verse 2 intro] 
(ahh ahh):
E|-------------|
B|---3-----2---|
G|---2-----2---|
D|---0-----2---|
A|---------0---|
E|---3---------|

     G     A

[Intro 2]
(Key of F#):
E|---2-----2---|
B|---3-----3---|
G|---2-----2---|
D|---0-----0---|
A|-------------|
E|---------3---|

     D    D/G

(for 2x)


[Verse 2]
E|---2-----2---|
B|---3-----3---|
G|---2-----2---|
D|---0-----0---|
A|-------------|
E|---------3---|

     D    D/G

for 16x (Kung iisipin mo...twice)

[Bridge to Chorus 2]
E|-------|
B|---2---|
G|---2---|
D|---2---|
A|---4---|
E|---x---|
    A/C#

[Chorus 2]
E|-------------------|
B|---0-----2-----3---|
G|---0-----2-----2---|
D|---2-----0-----0---|
A|---2-----x-----x---|
E|---0-----2-----3---|

    Em    D/F#   G

(for 2x)

[Solo Bridge]
(hoohh ni Dancel):

E|-------------------|
B|---2-----3-----2---|
G|---2-----2-----2---|
D|---0-----0-----0---|
A|---2-----2-----2---|
E|---2-----3-----2---|

   Bm/F#   G   Bm/F#


E|------------------|
B|---3----------3---|
G|---2----------3---|
D|---0----------0---|
A|---x----------x---|
E|---3----------3---|

     G (3x)    Gm

[Verse 3]
(Tinatawag kita)
E|---2-------2---|
B|---2-------3---|
G|---2-------0---|
D|---0-------0---|
A|-----------x---|
E|-----------3---|
   Dmaj7   GMaj7
(for 2x)

Di mo man marinig...:

E|--------------|
B|---3------3---|
G|---2------2---|
D|---0------0---|
A|---x------x---|
E|---2------3---|

     D/F#   G

[Bridge to Last Chorus]
E|-------|
B|---2---|
G|---2---|
D|---2---|
A|---4---|
E|---x---|

    A/C#

[Last Chorus]
E|-------------------|
B|---0-----2-----3---|
G|---0-----2-----2---|
D|---2-----0-----0---|
A|---2-----x-----x---|
E|---0-----2-----3---|
      Em    D/F#   G
 (for 4x)
 
[Outro]
E|-------|
B|---3---|
G|---2---|
D|---0---|
A|---x---|
E|---3---|
X2

[Final pluck]
E|-------|
B|---3---|
G|---2---|
D|---0---|
A|---2---|
E|-------|



************************************

| h  Hammer-on
| x  Dead note

************************************
Suggest correction
Creating personal tab
Creating personal tab
You can edit any tab online and save it as your Personal.

You can edit, replace or remove any tab part or add personal notes – all changes will be seen only by you.

Personal tabs can be accessed anytime from any device, even offline.
Learn more »
Give kudos to tab author, rate the tab!
1 2 3 4 5
comments
print report bad tab
2 comments total.
0 reply
joshshampoo 10 Jul 03, 2017 11:55 PM

spot on idol

0 reply
lester.bambico 10 Jul 11, 2017 07:16 AM

add ko lang yung riff sa intro in case
E|---------------------------|
B|---------------0----0---0--|
G|---------------0----0---0--|
D|------------2--------------|
A|----------3-------3---3----|
E|---0-1-3-------------------|

guest
You may want to rate the tab now too:
select rating
Wanna post a correction for this tab? Suggest correction