Oops, an error
Loading. Please wait.

Burnout Tab

version 1
version 1

Whole song

31,149 views 42 this week
no commentswrite comment
1 2 3 4 5
x 6
add to favorites
launch autoscroll
font size
0
reset
how to read this tab
guitar tuner
Autoscroll
slow
fast
+/-
esc
set tempo
stop
[Intro & Verse chords]
e|-------|-------|
B|---7---|---5---|
G|---7---|---5---|
D|---5---|---5---|
A|-------|-------|
E|-------|-------|

(pakinggan nyo na lang ung song para sa strumming)

[Chorus]
e|--3--|--3--|--3--|
B|--3--|--3--|--3--|
G|--0--|--0--|--0--|   (2x)
D|--2--|--0--|--2--|
A|--0--|--2--|--3--|
E|--x--|--x--|--x--|
o kay tagal din kitang....

e|--3--|--3--|
B|--3--|--3--|
G|--0--|--0--|   (2x)
D|--0--|--2--|
A|--2--|--3--|
E|--3--|--x--|
wooohooo...woooohoooo...

[Interlude]
e|--x--|--x--|
B|--7--|--5--|
G|--7--|--5--|   (2x)
D|--x--|--x--|
A|--x--|--x--|
E|--x--|--x--|


************************************

| x  Dead note

************************************
Suggest correction
comments
print report bad tab
guest
You may want to rate the tab now too:
select rating
Wanna post a correction for this tab? Suggest correction