Oops, an error
Loading. Please wait.

Burnout bass

version 2
version 2

Whole song

1,045 views 6 this week
no commentswrite comment
1 2 3 4 5
2 more votes to show rating
add to favorites
×
Save as Personal and add changes to this tab that will be seen only by you. Learn more ›
×
You can save this tab as Personal to edit and correct it or add notes. All changes will be seen only by you. Learn more »
launch autoscroll
font size
0
reset
guitar tuner
edit
Autoscroll
slow
fast
+/-
esc
set tempo
stop
Author
Difficulty
        Burnout by Sugarfree
        Tabbed by: Ayie Visitacion

Standard Tuning


The studio version of the song has a bass fill in all choruses
and before the second chorus, so it has two basses and i just incorporated
the two in one, leaving the not so important part.


        O wag kang tumingin ng ganyan sa akin...
G|---5+------12+----------------------------12-11-9-7\--|
D|-5+---------------------------------------------------|
A|------------------------------------------------------|
E|----------------------------------------------------3-|


G|-----------------------------------------------------|
D|----------5--------5--------5------------------------|
A|-10\---3/5------3/5------3/5-------------------------|
E|----3--------3--------3------------------------------|


                                      o kay tagal...
G|-----------------------------------------------------|
D|-------5--------5--------5--5555----4444-------------|
A|----3/5------3/5------3/5----------------------------|
E|-3--------3--------3------------2222-----------------|

  
  Chorus
G|---------12-11-9-7---------7----9-7--|
D|-----------------------------10------|
A|-00-000------------------------------|
E|--------------------88-888-----------|


G|---------12-11-9-7---------------------|
D|-------------------------------10------|
A|-00-000--------------------8/10--------|
E|--------------------88-888----------3--|


        kung iisipin mo...
G|-----------------------------------------------------|
D|--54----------------------0-------------------0------|
A|-5--5-7-5----------3-3-23---3-0--------3-3-23---3-0--|
E|-----------3-3-323--------------3-3-23---------------|


G|----------------------------------|
D|------4------55-------------------|
A|-2-2-2-23-3-3--3-0-2-2-222-3-333--|
E|----------------------------------|

   
   kung iisipin mo, di naman dati...
G|-----------------------------------|
D|-----------------------------------|
A|-235--------------------5----------|
E|-----3-------------------3---------|


  kay bilis kasi ng buhay...                        o kay tag...
G|-------------------11-----9h11-11-9--------------------------|
D|---------------------12------------12------------4444--------|
A|----------------------------------------33333----------------|
E|-----5-7-------------------------------------2222------------|


 Chorus
G|---------12-11-9-7---------7----9-7--|
D|-----------------------------10------|
A|-0000000-----------------------------|
E|--------------------8888888----------|


G|---------12-11-9-7-------------------|
D|-------------------------------------|
A|-0000000-------------88888888888888--|
E|-------------------------------------|


  Bridge:
G|------------------------------------|
D|------------------------------------|
A|------------------------------------|
E|-15\--0-0-0-00-000-8-8-88888885787--|


G|-------------------------------------------------------------|
D|------------------------------------101010101010---10--------|
A|----------------------------------8/-------------10----10\---|
E|-12\--0-0-0-00-000-888888888888888------------------------3--|


G|-----------------------------------|
D|-----------------------------------|
A|----33----33----33----33-----------|
E|-33----33----33----33--------------|


(pause)

tinatawag kita, sinusuyo kita
di mo man marinig di mo man

   madama..      
G|-----------------------------------|
D|-----------------------------------|
A|-----------------------------------|
E|-8-7-8-----------------------------|


 Chorus
G|-------------12-11-9-7---------7----9-7--|
D|---------------------------------10------|
A|-----0000000-----------------------------|
E|-15/--------------------8888888----------|


G|---------12-11-9-7-------------------|
D|-------------------------------------|
A|-0000000-------------88888888888888--|
E|-------------------------------------|


G|-------------------------------------|
D|-------------------------------------|
A|-------------------------------------|
E|-55555555-77777777-8888888888888888--|


G|-------------------------------------------------|
D|-------------------------------------------------|
A|-------------------------------------------------|
E|-55555555-777777-15\-88--8-78--88--8-78--15\--0--|

Enjoy!!!

| /  slide up
| \  slide down
| h  hammer-on
| p  pull-off
| ~  vibrato
| +  harmonic
| x  Mute note

            
            
Suggest correction
Creating personal tab
Creating personal tab
You can edit any tab online and save it as your Personal.

You can edit, replace or remove any tab part or add personal notes – all changes will be seen only by you.

Personal tabs can be accessed anytime from any device, even offline.
Learn more »
Give kudos to tab author, rate the tab!
1 2 3 4 5
comments
print report bad tab
guest
You may want to rate the tab now too:
select rating
Wanna post a correction for this tab? Suggest correction