Oops, an error
Loading. Please wait.

Burnout Tab

version 2
version 2

Whole song

32,144 views 126 this week
2 commentsread comments
1 2 3 4 5
x 23
add to favorites
launch autoscroll
font size
0
reset
how to read this tab
guitar tuner
×
Best way to learn
"Burnout"
Autoscroll
slow
fast
+/-
esc
set tempo
stop
[Intro] 
G-C-(2x) or

[Intro & Verse chords]
e|-------|-------|
B|---7---|---5---|
G|---7---|---5---|
D|---5---|---5---|
A|-------|-------|
E|-------|-------|

[Verse 1]
G-C
O wag kang tumingin 
G-C
Ng ganyan sa akin
Bm-C
Wag mo akong kulitin
Bm-C
Wag mo akong tanungin

[Instrumental]
G-C-(2x)

[Verse 2]
G-C
Dahil katulad mo 
G-C
Ako rin ay nagbago
Bm-C
Di na tayo tulad ng dati
Bm-C
Kay bilis ng sandali

[Instrumental]
e|--3--|
B|--3--|
G|--0--|
D|--0--|
A|--0--|
E|--2--|

[Chorus]
e|--3--|--3--|--3--|
B|--3--|--3--|--3--|
G|--0--|--0--|--0--|   (2x)
D|--2--|--0--|--2--|
A|--0--|--2--|--3--|
E|--x--|--3--|--x--|

O kay tagal din kitang minahal
O kay tagal din kitang minahal

[Verse 3]
G C
Kung iisipin mo
G C
Di naman dati ganito
C
Teka muna teka lang
Bm C
Kelan tayo nailang?
G C                  
Kung iisipin mo
G C
Di naman dati ganito
Bm C
Kay bilis kasi ng buhay
Bm C
Pati tayo natangay

e|--3--|
B|--3--|
G|--0--|
D|--0--|
A|--0--|
E|--2--|

[Chorus]
e|--3--|--3--|--3--|
B|--3--|--3--|--3--|
G|--0--|--0--|--0--|   (2x)
D|--2--|--0--|--2--|
A|--0--|--2--|--3--|
E|--x--|--3--|--x--|

O kay tagal din kitang minahal
O kay tagal din kitang minahal
  
e|--3--|--3--|
B|--3--|--3--|
G|--0--|--0--|   (2x)
D|--0--|--2--|
A|--0--|--3--|
E|--2--|--x--|
  wooohooo...woooohoooo...

e|--3--|--3--|--3--|--2--|
B|--3--|--3--|--3--|--3--|
G|--0--|--0--|--2--|--2--| 
D|--0--|--2--|--x--|--x--|
A|--0--|--3--|--x--|--x--|
E|--2--|--x--|--x--|--x--|

(drum solo)

e|--3--|--2--|--0--|--2--|
B|--3--|--3--|--3--|--3--|
G|--0--|--0--|--0--|--0--| 
D|--x--|--x--|--x--|--x--|
A|--x--|--x--|--x--|--x--|
E|--x--|--x--|--x--|--x--|


(drums lang)
Tinatawag kita sinusuyo kita

e|--3--|--3--|
B|--3--|--3--|
G|--0--|--0--| 
D|--0--|--2--|
A|--0--|--3--|
E|--2--|--x--|
Di mo man marinig, di mo *man madama

e|--3--|--3--|--3--|
B|--3--|--3--|--3--|
G|--0--|--0--|--0--|   (2x)
D|--2--|--0--|--2--|
A|--0--|--2--|--3--|
E|--x--|--3--|--x--|
O kay tagal din kitang mamahlin
O kay tagal din kitang mamahalin
Oh mamahalin, mamahalin.....

[Outro] 
(listen to Burnout for this part)
e|--3--|
B|--3--|
G|--0--|   (2x)
D|--2--|
A|--3--|
E|--x--|

Em


************************************

| x  Dead note

************************************
Suggest correction
comments
print report bad tab
2 comments total.
0 reply
No_Falter08 2,414 Aug 19, 2007 05:53 AM

galing..

0 reply
andee_sc 10 Sep 18, 2007 01:06 AM

wow! kuha mo pare!

guest
You may want to rate the tab now too:
select rating
Wanna post a correction for this tab? Suggest correction