Oops, an error
Loading. Please wait.

Tulog Na tab

601 views 33 this week
no commentswrite comment
1 2 3 4 5
2 more votes to show rating
add to favorites
×
Save as Personal and add changes to this tab that will be seen only by you. Learn more ›
×
You can save this tab as Personal to edit and correct it or add notes. All changes will be seen only by you. Learn more »
launch autoscroll
font size
0
reset
how to read this tab
guitar tuner
edit
Autoscroll
slow
fast
+/-
esc
set tempo
stop
Author
Difficulty
-------------------------------------------------------------------------------
                             TULOG NA - Sugarfree
-------------------------------------------------------------------------------
Interpreted by: Andrei Lean Karlo Blanco

Hi! This is my second tab after eons of years from my first tab Balisong of Rivermaya.
Yep I know this tab is very too late, but I assure you that this is the best from all chords and tabs before.
It's for you to judge! Please rate!

Enjoy!

Tuning: Standard

Verse 1:

      D -        Bm -           Em -         A -    G -  F#m -

e|----2----------2---------------0-----------0------x-----2------------------------|
B|----3----------3---------------0-----------2------3-----2------------------------|
G|----2----------4---------------0-----------2------0-----2------------------------|
D|----0----------4---------------2-----------2------0-----4------------------------|
A|----x----------2---------------2-----------0------x-----4------------------------|
E|----x----------x---------------0-----------x------3-----2------------------------|

Tulog na,  mahal ko.  Hayaan na muna  natin ang mundong ito.


      Bm -         Em - D/F#m - G - A - A7sus - A7 -

e|----2-------------0----x------x---0----0-------0----------------------------------|
B|----3-------------0----3------3---2----3-------2----------------------------------|
G|----4-------------0----0------0---2----0-------0----------------------------------|
D|----4-------------2----0------0---2----2-------2----------------------------------|
A|----2-------------2----x------x---0----0-------0----------------------------------|
E|----x-------------0----2------3---x----x-------x----------------------------------|

Lika na,  tulog na tayo.


      D -        Bm -             Em -        A -     G -   F#m -

e|----2----------2----------------0-----------0-------x------2------------------------|
B|----3----------3----------------0-----------2-------3------2------------------------|
G|----2----------4----------------0-----------2-------0------2------------------------|
D|----0----------4----------------2-----------2-------0------4------------------------|
A|----x----------2----------------2-----------0-------x------4------------------------|
E|----x----------x----------------0-----------x-------3------2------------------------|

Tulog na,  mahal ko.  'Wag kang lumuha,  malambot ang iyong kama.


      Bm -        C - C/B - A - A7sus - A7

e|-----2----------0----x----0----0------0------------------------------------------|
B|-----3----------1----3----2----3------2------------------------------------------|
G|-----4----------0----0----2----0------0------------------------------------------|
D|-----4----------2----0----2----2------2------------------------------------------|
A|-----2----------3----2----0----0------0------------------------------------------|
E|-----0----------x----x----x----x------x------------------------------------------|

'Saka na,  mamoroblema ~



Chorus:

      D -    Daug -       Bm -        C - D7

e|----2-------2------------2----------0---2---------------------------------------|
B|----3-------3------------3----------1---1---------------------------------------|
G|----2-------3------------4----------0---2---------------------------------------|
D|----0-------0------------4----------2---0---------------------------------------|
A|----x-------x------------2----------3---x---------------------------------------|
E|----x-------x------------x----------x---x---------------------------------------|

Tulog na,  hayaan na muna natin sila.


    G -     F#m -          Bm -  A -      E - E7sus - E7 -

e|--3-------2---------------2----0--------0----0------0-----------------------------|
B|--3-------2---------------3----2--------0----0------0-----------------------------|
G|--0-------2---------------4----2--------1----2------1-----------------------------|
D|--0-------4---------------4----2--------2----0------0-----------------------------|
A|--2-------4---------------2----0--------2----2------2-----------------------------|
E|--3-------2---------------x----x--------0----0------0-----------------------------|

Mamaya,  hindi ka na nila kaya pang saktan.


         Em - F#m - G - A -     Gm-

e|-------0-----2----3---5--------5------------------------------------------------|
B|-------0-----2----3---5--------5------------------------------------------------|
G|-------0-----2----4---6--------5------------------------------------------------|
D|-------2-----4----5---7--------7------------------------------------------------|
A|-------2-----4----5---7--------7------------------------------------------------|
E|-------0-----2----3---5--------5------------------------------------------------|

Kung matulog,                matulog ka na ~

Verse 2:

      D -        Bm -           Em -         A - G - F#m -

e|----2----------2---------------0-----------0---x----2------------------------|
B|----3----------3---------------0-----------2---3----2------------------------|
G|----2----------4---------------0-----------2---0----2------------------------|
D|----0----------4---------------2-----------2---0----4------------------------|
A|----x----------2---------------2-----------0---x----4------------------------|
E|----x----------x---------------0-----------x---3----2------------------------|

Tulog na,  mahal ko.  Nandito lang akong  bahala sa iyo.


      Bm -         Em - D/F#m - G - A - A7sus - A7 -

e|----2-------------0----x------x---0----0-------0----------------------------------|
B|----3-------------0----3------3---2----3-------2----------------------------------|
G|----4-------------0----0------0---2----0-------0----------------------------------|
D|----4-------------2----0------0---2----2-------2----------------------------------|
A|----2-------------2----x------x---0----0-------0----------------------------------|
E|----x-------------0----2------3---x----x-------x----------------------------------|

Sige na,  tulog na muna.


      D -        Bm -         Em -          A -   G -    F#m -

e|----2----------2-------------0------------0-----x------2------------------------|
B|----3----------3-------------0------------2-----3------2------------------------|
G|----2----------4-------------0------------2-----0------2------------------------|
D|----0----------4-------------2------------2-----0------4------------------------|
A|----x----------2-------------2------------0-----x------4------------------------|
E|----x----------x-------------0------------x-----3------2------------------------|

Tulog na,  mahal ko.  At baka bukas,  ngingiti ka sa wakas.


           Bm -      C - C/B - A - A7sus - A7

e|---------2---------0----x----0----0------0------------------------------------------|
B|---------3---------1----3----2----3------2------------------------------------------|
G|---------4---------0----0----2----0------0------------------------------------------|
D|---------4---------2----0----2----2------2------------------------------------------|
A|---------2---------3----2----0----0------0------------------------------------------|
E|---------0---------x----x----x----x------x------------------------------------------|

At sabay nating  harapin ang mundo ~


Chorus:

      D -    Daug -       Bm -        C - D7

e|----2-------2------------2----------0---2---------------------------------------|
B|----3-------3------------3----------1---1---------------------------------------|
G|----2-------3------------4----------0---2---------------------------------------|
D|----0-------0------------4----------2---0---------------------------------------|
A|----x-------x------------2----------3---x---------------------------------------|
E|----x-------x------------x----------x---x---------------------------------------|

Tulog na,  hayaan na muna natin sila.


    G -     F#m -          Bm -  A -      E - E7sus - E7 -

e|--3-------2---------------2----0--------0----0------0-----------------------------|
B|--3-------2---------------3----2--------0----0------0-----------------------------|
G|--0-------2---------------4----2--------1----2------1-----------------------------|
D|--0-------4---------------4----2--------2----0------0-----------------------------|
A|--2-------4---------------2----0--------2----2------2-----------------------------|
E|--3-------2---------------x----x--------0----0------0-----------------------------|

Mamaya,  hindi ka na nila kaya pang saktan.


         Em - F#m - G - A -     Gm-

e|-------0-----2----3---5--------5------------------------------------------------|
B|-------0-----2----3---5--------5------------------------------------------------|
G|-------0-----2----4---6--------5------------------------------------------------|
D|-------2-----4----5---7--------7------------------------------------------------|
A|-------2-----4----5---7--------7------------------------------------------------|
E|-------0-----2----3---5--------5------------------------------------------------|

Kung matulog,                matulog ka na ~


Interlude:

    D -    Bm -   Em -   A -   G -   F#m -

e|--2------2-------0-----0-----x-----2------------------------|
B|--3------3-------0-----2-----3-----2------------------------|
G|--2------4-------0-----2-----0-----2------------------------|
D|--0------4-------2-----2-----0-----4------------------------|
A|--x------2-------2-----0-----x-----4------------------------|
E|--x------x-------0-----x-----3-----2------------------------|

Parara lalala lalala lalala la la la lala


      Bm -        C - C/B - A - A7sus - A7

e|-----2---------0----x----0----0------0------------------------------------------|
B|-----3---------1----3----2----3------2------------------------------------------|
G|-----4---------0----0----2----0------0------------------------------------------|
D|-----4---------2----0----2----2------2------------------------------------------|
A|-----2---------3----2----0----0------0------------------------------------------|
E|-----0---------x----x----x----x------x------------------------------------------|
Lalala

Chorus:

      E -    Eaug -       C#m -        D - E7

e|----0-------0------------4-----------2---0---------------------------------------|
B|----0-------1------------5-----------3---0---------------------------------------|
G|----1-------1------------6-----------2---1---------------------------------------|
D|----2-------2------------6-----------0---0---------------------------------------|
A|----2-------0------------4-----------x---2---------------------------------------|
E|----0-------0------------x-----------x---0---------------------------------------|

Tulog na,  hayaan na muna natin sila.


    A -     G#m -          C#m -  B -      F# - F#7sus - F7 -

e|--0-------4---------------4-----2--------2-----2-------2-----------------------------|
B|--2-------4---------------5-----4--------2-----2-------2-----------------------------|
G|--2-------4---------------6-----4--------3-----4-------3-----------------------------|
D|--2-------6---------------6-----4--------4-----2-------2-----------------------------|
A|--0-------6---------------4-----2--------4-----4-------4-----------------------------|
E|--x-------4---------------x-----x--------2-----2-------2-----------------------------|

Mamaya,  hindi ka na nila kaya pang saktan.


         F# - G#m - A - B -     Am -
e|-------2-----4----5---7--------5---------------------------------------|
B|-------2-----4----5---7--------5---------------------------------------|
G|-------3-----4----6---8--------5---------------------------------------|
D|-------4-----6----7---9--------7---------------------------------------|
A|-------4-----6----7---9--------7---------------------------------------|
E|-------2-----4----5---7--------5---------------------------------------|
Kung matulog,  matulog ka na ~

Outro:

   E -     Am -            E -      Am -

e|-0-------0---------------0--------0--------------------------------------------|
B|-0-------1---------------0--------1--------------------------------------------|
G|-1-------2---------------1--------2--------------------------------------------|
D|-2-------2---------------2--------2--------------------------------------------|
A|-2-------0---------------2--------0--------------------------------------------|
E|-0-------x---------------0--------x--------------------------------------------|

   Aaah-ah-aah  matulog ka na ~

End.


************************************

| /   slide up
| \   slide down
| h   hammer-on
| p   pull-off
| ~   vibrato
| +   harmonic
| x   Mute note
| b   Bend
| pb  Pre-bend
| br  Bend release
| pbr Pre-bend release
| brb Bend release bend

************************************

            
            
Suggest correction
Creating personal tab
Creating personal tab
You can edit any tab online and save it as your Personal.

You can edit, replace or remove any tab part or add personal notes – all changes will be seen only by you.

Personal tabs can be accessed anytime from any device, even offline.
Learn more »
Give kudos to tab author, rate the tab!
1 2 3 4 5
comments
print report bad tab
guest
You may want to rate the tab now too:
select rating
Wanna post a correction for this tab? Suggest correction