Oops, an error
Loading. Please wait.

L.o.d.o Tab

13 views 1 this week
no commentswrite comment
1 2 3 4 5
3 more votes to show rating
add to favorites
launch autoscroll
font size
0
reset
how to read this tab
guitar tuner
Autoscroll
slow
fast
+/-
esc
set tempo
stop
Help us to improve Ultimate-Guitar.com Take our survey!
×
LODO

BriConsejo para el principio: Poned, si
podéis ke fijo ke si, éste acorde, os será mas
cómodo:

E-x----------------------------
B-9----------------------------
G-8----------------------------
D-6----------------------------
A-6----------------------------
D-6----------------------------

Weno, el principio es alternar entre el traste 8 y
el 6 de la 6ª cuerda (el D grave).

Luego es:

E-------------------------------------
B---------9-9-9-9----------9-9-9-9----
G---------8-8-8-8----------8-8-8-8----
D---------6-6-6-6----------6-6-6-6----
A-8-8-8-6-----------8-6-8-------------
D-8-8-8-6-----------8-6-8------------- (x8, creo)

2ª Parte:

E----------------------------------
B-----6-6-6-4-4--------------------
G---------------1-1-3-3------------
D-----------------------3-3-1-1-1--
A----------------------------------
D-8-8------------------------------ (Ich Bein)

A fuego lento

E---------------------------
B---------------------------
G---------------------------
D-------------------------8-
A-6-8-6-8--11--8--8-8-6-8-6-
D-6-8-6-8--11--8--8-8-6-8--- (+ 2ª Parte)

En el Laaaberiiinto Oscuro...

E-----------------------------------
B-----------------------------------
G-6--6--6--6-6-6---8--8--8--8-8-8---
D-6--6--6--6-6-6---8--8--8--8-8-8---
A-4--4--4--4-4-4---6--6--6--6-6-6---
D-6--6--6--6-6-6---8--8--8--8-8-8---

Luego es la parte del principio, de lo de la 6ª
cuerda que comentaba antes, y se repite lo del
Luego es en el estribillo... En la parte entre
lo de antes y el estribillo se escucha un arpegio
de guitarra ke viene a ser esto:

E-----6-
B---6---
G-8-----
D-------
A-------
D------- Es una chorrada, pero keda guay...

Y el resto de la canción solo es combinar todas
estas partes, en principio es sencillita... el solo
ya lo intentare sacar aparte. De momento espero que
os sirva este intento de tab. =) Sed Felices!
Suggest correction
Give kudos to tab author, rate the tab!
1 2 3 4 5
comments
print report bad tab
guest
You may want to rate the tab now too:
select rating
Wanna post a correction for this tab? Suggest correction