Oops, an error
Loading. Please wait.

Vertigo Tab

30 views 1 this week
no commentswrite comment
1 2 3 4 5
3 more votes to show rating
add to favorites
×
Save as Personal and add changes to this tab that will be seen only by you. Learn more ›
×
You can save this tab as Personal to edit and correct it or add notes. All changes will be seen only by you. Learn more »
save as personal
new!
launch autoscroll
font size
0
reset
how to read this tab
guitar tuner
Autoscroll
slow
fast
+/-
esc
set tempo
stop
VERTIGO

Éste tema tambien tiene afinada la 6ª cuerda en Re
(D), ok?

La intro y weno, la parte que mas se repite de la
canción:

E------------------------------
B------------------------------
G------------------------------
D------------------------------
A------------------------------
D-5-0-3-4-5-0-2-3-5-0-3-4-8-8-8 (x2 creo...)

Y luego lo mismo, o sea:

E------------------------------
B------------------------------
G------------------------------
D-5-0-3-4-5-0-2-3-5-0-3-4-8-8-8
A-5-0-3-4-5-0-2-3-5-0-3-4-8-8-8
D-5-0-3-4-5-0-2-3-5-0-3-4-8-8-8

Lo siguiente, que es lo de las estrofas,
no estoy nada convencido de ke sea asi, pero weno,
como apaño puede valer...

E-0-
B-8-
G-7-
D---
A---
D--- Tocarlo en plan corcheas, todo seguido....

Y el estribillo... todos a pegar botes, hacer pogos,
y salirse del pellejo!!!

E-----------------------------------------------
B-----------------------------------------------
G-----------------------------------------------
D-5-5-3-5-0-8-10--0-3-5-3-0-5-5-3-5-0-3-3-4-4---
A-5-5-3-5-0-8-10--0-3-5-3-0-5-5-3-5-0-3-3-4-4---
D-5-5-3-5-0-8-10--0-3-5-3-0-5-5-3-5-0-3-3-4-4---( creo...)

Se repite toda la historia hasta el segundo estribillo,
y luego es, básicamente, esto:

E-------------------------------------------
B-------------------------------------------
G-------------------------------------------
D-11-11-11-11-11-11-9-8-7-5-5-5-5-5-5-7-7-7-
A-11-11-11-11-11-11-9-8-7-5-5-5-5-5-5-7-7-7-
D-11-11-11-11-11-11-9-8-7-5-5-5-5-5-5-7-7-7- (un par de
veces, sale escuchando el tema...)

Hay una paranoia de guitarra ahí de por medio ke no
consigo sacar ni a la de tres, si alguien puede exarme
una ayudita lo agradeceria...

Y básicamente, conjugando bien estas partes, sale
este temazo ke yo creo ke es el mas punki del disco
nuevo.

Saluz!
Suggest correction
Give kudos to tab author, rate the tab!
1 2 3 4 5
comments
print report bad tab
guest
Wanna post a correction for this tab? Suggest correction