Oops, an error
Loading. Please wait.

Green Eyed Lady Bass Tab

version 4
version 4

Whole song

Interactive

3,897 views 33 this week
no commentswrite comment
1 2 3 4 5
please rate
add to favorites
launch autoscroll
font size
0
reset
guitar tuner
Tab Pro tools
  • play this tab
  • loop segment
  • change instrument
  • show fretboard
  • metronome
Autoscroll
slow
fast
+/-
esc
set tempo
stop
Contributor
Difficulty
intermediate
Green-Eyed Lady by Sugarloaf

Tabbed by bom_bick
mdiedrick@gmail.com

I tabbed this six years ago but made an error in the hammer-on.  It's such a 
fun song to play--it would have been a shame to let it go uncorrected.


Intro
G |----------------------------------------------------------|
D |---------------2----------------------------2-------------|
A |-------0-2-3-5----------------------0-2-3-5-------2-2-----|
E |-2-3-4---------------0-0------2-3-4-----------------------|

G |----------------------------------------|
D |---------------2---0-0------------------|
A |-------0-2-3-5--------------------------|
E |-2-3-4--------------------3---5-5----5--|
Play the intro once.



Rest for the drum solo.




Riff 1
G |-----------------------------------------------------------------|
D |--------5---------------------5---------------------5------------|
A |-----5-----5--0-1-2--------4-----4--0-1-2--------3-----3--0-1-2--|
E |--0---------------------0---------------------0------------------|

G |---------------------------|
D |---------------------------|
A |---------------------------|
E |---0-6-7-0-4-5-2h3-2h3-----|
Repeat this until the keyboard solo.



Solo
G |---------------------------|
D |---------------------------|
A |---------------------------|
E |---0-6-7-0-4-5-2h3-2h3-----|
Repeat this through the whole keyboard solo.



After the solo, Riff 1 repeats until the end.



Listen to the song for the rhythm and to know when the changes occur.




h-Hammer on


Comment with any corrections.
comments
We did not receive enough feedback on this tab! Please rate:
print report bad tab
1 2 3 4 5
I want to post or [tab]
guest
You may want to rate the tab now too:
select rating
Please do not post tabs as comments. Select "correction" instead!