Oops, an error
Loading. Please wait.

El Fantasma De Canterville Tab

106 views 6 this week
no commentswrite comment
1 2 3 4 5
3 more votes to show rating
add to favorites
launch autoscroll
font size
0
reset
how to read this tab
guitar tuner
×
Best way to learn
"El Fantasma De Canterville"
Autoscroll
slow
fast
+/-
esc
set tempo
stop
Introduccion: riff 1 (ritmo de blues)

----------------------------------
----------------------------------
----------------------------------
--------2--------2--2-------------   BIS
--2--2--3--2--2--3--3-------------
--3--3-----3--3-------------------


SOL
Yo era un hombre bueno
DO                           Riff 1
si hay alguien bueno en esta lugar
SOL
Pague todas mis deudas y
DO                 Riff 1
mi oportunidad de amar
RE
sin embargo estoy tirado
LAm        SIm      MIm-DO
y nadie se acuerda de mi
        SOL
paso a traves de la gente
            RE    DO      Riff 1
como el fantasma de Canterville

Me han ofendido mucho
y nadie dio una explicacion
Ay! si pudiera matarlos
lo haria sin ningun temor
pero siempre fui un tonto
que creyo en la legalidad
ahora que estoy afuera
ya se lo que es la libertad

Ahora que puedo amarte
yo voy a amarte de verdad
mientras me quede aire
calor nunca te va a faltar
y jamas volvere a fijarme
en la cana de los demas
esa careta idota
 RE        DO       riff 1 - MI
que tira y tira para atras


Riff 2 (ritmo de blues)

------------------------------
------------------------------
------------------------------
--2--2--4--2--2--4--4---------  BIS
--0--0--0--0--0--0--0---------
------------------------------


LA
 He muerto muchas veces
RE                    riff 2
Acribillado en la ciudad
LA
pero es mejor ser muerto
RE                     riff 2
que un numero que viene y va
MI
y en mi tumba tengo discos
SIm         DO#m        FA#m
y cosas que no me hacen mal
    LA
despues de muerto, nena
MI                  FA#m  RE
vos me vendras a visitar
LA
despues de muerto, nena
MI                  FA#m  RE
vos me vendras a visitar
LA
despues de muerto, nena
MI                  riff 3
vos me vendras a visitar

riff3 (ritmo de blues)

--2/4--0-------------------0-------
----------2--0---------------------
----------------4/2--0-------------
------------------------2----------
-----------------------------------
-----------------------------------

Aclaración: este final (riff 3) fue inventado solo para tener
un final no es el final original de la canción,
asi que fue improvisado =P
disculpen si no le es fiel, pero lo toco a mi gusto,
de ultima denle un final a su gusto, es el único detalle que voy a aclarar,
desde ya muchas gracias!:D
Suggest correction
Give kudos to tab author, rate the tab!
1 2 3 4 5
comments
print report bad tab
guest
You may want to rate the tab now too:
select rating
Wanna post a correction for this tab? Suggest correction