Oops, an error
Loading. Please wait.

El Show De Los Muertos Bass

16 views 3 this week
no commentswrite comment
1 2 3 4 5
3 more votes to show rating
add to favorites
launch autoscroll
font size
0
reset
guitar tuner
×
Best way to learn
"El Show De Los Muertos"
Autoscroll
slow
fast
+/-
esc
set tempo
stop
Esta es mi corrección del tema el show de los muertos que yo
ya había enviado...

En el intro se hace sol y luego un pase rápido de fa# a sol.
Todo el primer verso se hace en sol

A|--------------------6---5--4--3-----3--5-------------
E|-6-------5------4---------------------------------3--
  Sib      La    Sol# Re# ReDo# Do    Do Re        Sol
  Elija usted en cual de  todas ellas se puso a pensar

Después de esto viene un riff que es base de casi todo el resto
del tema:

A|-8-7---3-5*---3-2---------8-7--3--------------------
E|--------------------1-3*---------3--3-3-3--3-3-3----

El * significa que se debe dejar sonando

En el segundo verso se le da una vuelta mas a este riff y
después se queda en sol y en re el resto del verso, así:

A|--------------------5---
E|-3*--3-3-3*--3-3-3*---3*

Esto va varias veces (aunque no estoy muy seguro de esta parte)
y después viene donde dice 'elija usted en cual de esas muertes...'
que va igual que la primera vez...

Después la guitarra hacen unos arreglillos muy buenos y en eso
el bajo esta callado,luego entra con los tonos:

A|-----------------7--------2--2-2-5-----5--------------
E|------3---------------------------------------3-------
       Sol         Mi       Si     Re          Sol
  Yo crecí con sonrisas de casa         cielos claros

A|---7----------2--2-2-2--5----5--5---3--3-3---0-------
E|-----------------------------------------------------
    Mi          Si        Re          Do       La
  Y verde el jardín     y que estoy haciendo

A|----------------------3------3-------5----5-5-5----
E|------------1--------------------------------------
             Fa         Do             Re
  Acá en esta calle con hambre cuantas veces

A|--------------3-------------------------5--5-5-5--
E|-------------------3---5---3---5-----3------------
                Do  Sol  La Sol  La   Sol Re
   Tendré que morir pa---ra ser siem--pre yo?

Lo que sigue (y no es el que...) va igual, sólo que en
el final se agrega esto:

A|-3p5-5----5-------
E|--------------3---
     Re        Sol
   e-e-en su espalda

después se vuelve al riff básico que se mantiene en el
intermedio y el último verso...


A|-----------------------6---5----4--3-----3--5*------
E|-6--------5------4----------------------------------
  Sib       La    Sol#  Re#  Re  Do# Do    Do Re
  Algo anda mal señor   que  es eso  rojo  en su

A|----------3p5-5--5-3-----------3p5-5--5-3---------------
E|-------3-------------5-4-3 ---------------5-4-3-----
        Sol
   Pantalón...

Después en el outro mantiene el riff base que entra en cuanto
se oye la palabra 'gente' de la voz que dice 'que lindísima
gente...' y se mantiene hasta el final del tema. Fin.

Como ven, no es difícil si lo tocan con el cd de fondo. Si alguien
pudiera sacar el bajo de pasajera en trance de Charly y publicarlo
aquí, se lo agradecería mucho.

Aparte, ando buscando bajista, guitarrista y baterista con
influencias de sui generis, seru girán, charly, spinetta y todo
 eso para tocar en Tijuana, B.C., México.

Eso es todo, chau y aguante el aguante...
Suggest correction
Give kudos to tab author, rate the tab!
1 2 3 4 5
comments
print report bad tab
guest
You may want to rate the tab now too:
select rating
Wanna post a correction for this tab? Suggest correction