Oops, an error
Loading. Please wait.

Instituciones Tab

version 2
version 2

Whole song

62 views 3 this week
no commentswrite comment
1 2 3 4 5
3 more votes to show rating
add to favorites
launch autoscroll
font size
0
reset
how to read this tab
guitar tuner
×
Best way to learn
"Instituciones"
Autoscroll
slow
fast
+/-
esc
set tempo
stop
Intro:

Arreglo de sintetizador para Guitarra:

  Synt:
e|-----|--12^^^^----------|-10^^^^----------|
B|-12--|*-------------10--|------------12--*|
G|-----|------------------|-----------------|
D|-----|------------------|-----------------|
A|-----|*-----------------|----------------*|
E|-----|------------------|-----------------|


  Synt:
e|-12^^^^-------------------|-24^^^^-----------------|
B|--------------------------|------------------------|
G|--------------------------|------------------------|
D|--------------------------|------------------------|
A|--------------------------|------------------------|
E|--------------------------|------------------------|
 |Guitarrra:
e|--------------------------|------------------------|
B|------0-----3-----7-----3-|----0-----3-----7-----3-|
G|--------------------------|------------------------|
D|-2-2-----4-----5-----4----|-2-----4-----5-----4----|
A|--------------------------|------------------------|
E|--------------------------|------------------------|
                                                   Yo

e|-------------------------|------------------------|
B|-----0-----3-----7-----3-|----0-----3-----7-----3-|
G|-------------------------|------------------------|
D|-2------4-----5-----4----|-2-----4-----5-----4----|
A|-------------------------|------------------------|
E|-------------------------|------------------------|
   mi_ro por el dì_a que vendrà                   Her-

e|-------------------------|-------0---1---1--------|
B|-----0-----3-----7-----3-|----0--------0-0--------|
G|-------------------------|---------0-----0--------|
D|-2------4-----5-----4----|-2----------------------|
A|-------------------------|------------------------|
E|-------------------------|------------------------|
   moso como un sol en la ciudad              y si me escuchas

|C   Eb                |Em
bien,   creo que entenderás
C                      |G
  por qué yo esperé en vano
     Eb                |Em
       que me dieras tu mano
     Cm                |G
         de     mis     huesos
      F   C            |Em
la humanidad     debes  salvar.

e|-------------------------|------------------------|
B|-----0-----3-----7-----3-|----0-----3-----7-----3-|
G|-------------------------|------------------------|
D|-2------4-----5-----4----|-2-----4-----5-----4----|
A|-------------------------|------------------------|
E|-------------------------|------------------------|
salvar


  Solo 1:
e|----------------------------------------------------|
B|---------------15--------15-------------------------|
G|-14b16-14b16------14b16-----14b16r14-12-14b16r14-12-|
D|----------------------------------------------------|
A|----------------------------------------------------|
E|----------------------------------------------------|
 |
e|----------------------------------------------------|
B|-------0-----3-------7------------------3-----------|
G|----------------------------------------------------|
D|-2--------4-------5---------4-----------------------|
A|----------------------------------------------------|
E|----------------------------------------------------|


e|-------15-------------------------------------------|
B|-15b17----15b17-------15b17r15b17r15b17r15-12-------|
G|----------------------------------------------14-12-|
D|----------------------------------------------------|
A|----------------------------------------------------|
E|----------------------------------------------------|
 |
e|----------------------------------------------------|
B|---------0--------3-------7------------------3------|
G|----------------------------------------------------|
D|-2-------------4-----5------------4-----------------|
A|----------------------------------------------------|
E|----------------------------------------------------|


e|-15b17--15-15p12----12---------------------------------------12-15-|
B|-----------------15----15b12------------------------------15-------|
G|-----------------------------14-14b16---14p12----12-14b16----------|
D|----------------------------------------------14-------------------|
A|-------------------------------------------------------------------|
E|-------------------------------------------------------------------|
 |
e|-------------------------------------------------------------------|
B|------0--------3------------------7-------------------3------------|
G|-------------------------------------------------------------------|
D|-2---------4-----------5-------------------4-----------------------|
A|-------------------------------------------------------------------|
E|-------------------------------------------------------------------|
                                                                 los


e|-15b17---(punteos y -----|------------------------|
B|-------escalas difíceles-|------------------------|
G|--------de escuchar)-----|------------------------|
D|-------------------------|------------------------|
A|-------------------------|------------------------|
E|-------------------------|------------------------|
 |
e|-------------------------|------------------------|
B|-----0-----3-----7-----3-|----0-----3-----7-----3-|
G|-------------------------|------------------------|
D|-2------4-----5-----4----|-2-----4-----5-----4----|
A|-------------------------|------------------------|
E|-------------------------|------------------------|
  magos los acrobatas  los  clowns
                       (los magos los acrobatas los


e|-------------------------|------------------------|
B|-----0-----3-----7-----3-|----0-----3-----7-----3-|
G|-------------------------|------------------------|
D|-2------4-----5-----4----|-2-----4-----5-----4----|
A|-------------------------|------------------------|
E|-------------------------|------------------------|
clowns)                                          mue-

e|-------------------------|--1-1-1-1-1-1-1-1-1-1-1-|
B|-----0-----3-----7-----3-|------------------------|
G|-------------------------|------------------------|
D|-2------4-----5-----4----|------------------------|
A|-------------------------|------------------------|
E|-------------------------|------------------------|
  ven los  hilos  con  habilidad         pero no es terr-

|C   Eb                |Em (Fill 1)
 or,     A    LA    soledad
C                      |G
  lo que hace a los payasos
     Eb                |Em
       uno rojo otro blanco
     Cm                |G
         y a los viejos
      F     C        |E4
  romper la voz para cantar

  Fill 1
e|-------------------------------------|
B|----------------15-------------15b17-|
G|-------12-14b16----14b16r14-12-------|
D|-12h14-------------------------------|
A|-------------------------------------|
E|-------------------------------------|


  Riff 1                   End Riff 1
e|-5--4.---4.------|-5--4.---4.-4------|
B|----5.-5----5----|----5.-5----5-0----|
G|------------4----|-------------------|
D|-----------------|-------------------|
A|-----------------|-------------------|
E|-----------------|-------------------|

  With Riff 1 x 2
  Synt:
e|-----------------------------------------------|
B|-12-12-12-12-12-12-12-12-12-12h13--------12----|
G|----------------------------------14--------14-|
D|-----------------------------------------------|
A|-----------------------------------------------|
E|-----------------------------------------------|


e|-------------12-------------12--------------------------|
B|-------12h13----------12h13--------13p12-13-------------|
G|-13h14----------13h14-----------------------16p14-16-14-|
D|--------------------------------------------------------|
A|--------------------------------------------------------|
E|--------------------------------------------------------|

e|-----------------------------------------------|
B|-12-12-12-12-12-12-12-12-12-12h13--------------|
G|----------------------------------14-----------|
D|-----------------------------------------------|
A|-----------------------------------------------|
E|-----------------------------------------------|

e|---------------------------12--14--15-|
B|--------------12--13---15-------------|
G|----11-13-----------------------------|
D|-14-----------------------------------|
A|--------------------------------------|
E|--------------------------------------|

   E              C                E
  Synt:
D|-17-----------------------------|---------------------|
A|--------------------------------|---------------------|
E|--------------------------------|---------------------|
D|--------------------------------|---------------0-2-4-|
A|--------------------------------|---------0-2-3-------|
E|--------------------------------|-0-2-4^^-------------|
 |Guitarra:
e|-5--4.-----4--------------------|---------------------|
B|----5.--5------5--5.-----5------|---------------------|
G|------------------5.--5---------|---------------------|
D|--------------------------------|---------------0-2-4-|
A|--------------------------------|---------0-2-3-------|
E|--------------------------------|-0-2-4^^-------------|
  Oye, hijo, las cosas están de este modo,


   E              C                E
  Synt:
D|--------------------------------|---------------------|
A|--------------------------------|---------------3-5-7-|
E|-1------------------------------|-----1^^-2-4-5-------|
D|--------------------------------|-2-4-----------------|
A|--------------------------------|---------------------|
E|--------------------------------|---------------------|
 |Guitarra:
e|--------------------------------|---------------------|
B|--------------------------------|---------------------|
G|-1------------------------------|---------------------|
D|--------------------------------|---------------0-2-4-|
A|--------------------------------|---------0-2-3-------|
E|--------------------------------|-0-2-4^^-------------|
  una radio en mi cuarto me lo dice todo

C#m          B    A  G#m  G
No preguntes má___________s

   E              C                E
  Synt:
D|--------------------------------|---------------------|
A|--------------------------------|---------------3-5-7-|
E|--------------------------------|-----1^^-2-4-5-------|
D|--------------------------------|-2-4-----------------|
A|--------------------------------|---------------------|
E|--------------------------------|---------------------|
 |Guitarra:
e|--------------------------------|---------------------|
B|--------------------------------|---------------------|
G|--------------------------------|---------------------|
D|--------------------------------|---------------0-2-4-|
A|--------------------------------|---------0-2-3-------|
E|--------------------------------|-0-2-4^^-------------|
  Tenés sabados, hembras y televisores

   E              C                E
  Synt:
D|-4------------------------------------|---------------------|
A|--------------------------------------|---------------3-5-7-|
E|--------------------------------------|-----1^^-2-4-5-------|
D|--------------------------------------|-2-4-----------------|
A|--------------------------------------|---------------------|
E|--------------------------------------|---------------------|
 |Guitarra:
e|--------------------------------------|---------------------|
B|--------------------------------------|---------------------|
G|-1------------------------------------|---------------------|
D|--------------------------------------|---------------0-2-4-|
A|--------------------------------------|---------0-2-3-------|
E|--------------------------------------|-0-2-4^^-------------|
  Tenés días para amar aún sin los pantalones

C#m          B    A  G#m  G
No preguntes má___________s       Siempre el mismo


  C    D  Eb              |Em   D
terror       A    LA    soledad
    C                     |G
        me hizo esperar en vano
    Eb                    |Em
       que  me  dieras tu  mano
    Cm                    |G
         cuando   el      SOL
      F        C
me viene a buscar

                             E       G#m     F#m   B7
e|-------------------------|-0---x---4---x--------------|
B|-----0-----3-----7-----3-|-0---x---4---x--------------|
G|-------------------------|-1---x---4---x--------------|
D|-2------4-----5-----4----|-2---x---6---x--------------|
A|-------------------------|-2---x---6---x--------------|
E|-------------------------|-0---x---4---x--------------|
a llevar mis sueños al justo lugar


   E              G#m       F#m                      B
e|------------------------|--------------------------------------------|
B|------------------------|--------------------------12/14-12-14-12----|
G|----------------8^^-----|-11b13-11b13^^-(13)r11-9-----------------12-|
D|------------------------|--------------------------------------------|
A|------14p11p9p7---------|--------------------------------------------|
E|-12^^-------------------|--------------------------------------------|

   B7
e|---------------------------|
B|-12/14-12-14-12-----12^^^^-|
G|----------------12---------|
D|---------------------------|
A|---------------------------|
E|---------------------------|

   E              G#m
e|------------------------|
B|------------------------|
G|----------------8?????--|
D|------------------------|
A|------14p11p9p7---------|
E|-12^^-------------------|

   F#m                           B7
e|----------------------------------------------------|
B|-------------12-------12-------12-------------------|
G|-11b13-11b13----11b13----11b13----11b13-13p11-13p11-|
D|----------------------------------------------------|
A|----------------------------------------------------|
E|----------------------------------------------------|

   E              G#m   F#m                        B
e|--------------------|-------------------------------------------------|
B|--------------------|-------12-------------------12/14-12-14-14p12----|
G|----------------8??-|-11b13----11b13^^-(13)r11-9-------------------12-|
D|-14^^---------------|-------------------------------------------------|
A|------14p11p9p7-----|-------------------------------------------------|
E|--------------------|-------------------------------------------------|

   B7
e|---------------------------|
B|-12/14-12-14-14p12---------|
G|-------------------12^^^^--|
D|---------------------------|
A|---------------------------|
E|---------------------------|

   E     G#m   A     B7    ??       B7       E
e|-------------------12^^--16^^^^---19^^^^---22b24^^^^^^------|
B|-------13^^--14^^-------------------------------------------|
G|-13^^-------------------------------------------------------|
D|------------------------------------------------------------|
A|------------------------------------------------------------|
E|------------------------------------------------------------|


Hecho por Luis Loayza
LA Paz - Bolivia
Comentarios y correcciones:
louizloayza@
Suggest correction
Give kudos to tab author, rate the tab!
1 2 3 4 5
comments
print report bad tab
guest
You may want to rate the tab now too:
select rating
Wanna post a correction for this tab? Suggest correction