Oops, an error
Loading. Please wait.

Lunes Otra Vez Tab

95 views 1 this week
no commentswrite comment
1 2 3 4 5
3 more votes to show rating
add to favorites
×
Save as Personal and add changes to this tab that will be seen only by you. Learn more ›
×
You can save this tab as Personal to edit and correct it or add notes. All changes will be seen only by you. Learn more »
save as personal
new!
launch autoscroll
font size
0
reset
how to read this tab
guitar tuner
Autoscroll
slow
fast
+/-
esc
set tempo
stop
(En el solo hay dos guitarras tocando a la vez, yo tabule la mas grave
que es la que mas se escucha)


Intro:
-||-/3-3-3-3-3-3-3-3-3-3-3-3-3-------||
-||-/3-3-3-3-3-3-3-3-3-3-3-3-3--8-7--||
-||-----------------------------8-7--||
-||-----------------------------8-7--||
-||-----------------------------6-5--||
-||----------------------------------||


Primer corte:
-||----------10-12-10-------------------|-
-||----10-12----------10-8-10-8----8-8--|-
-||-12---------------------------/9-----|-
-||-------------------------------------|-
-||-------------------------------------|-
-||-------------------------------------|-

Solo:
|---------------------------------------------------------
|---------------------------------------------------------
|-----0-0-----0-0-----0-0-0-0-----0--0-----0-2b-0---0-----
|-0h2-----0h2-----0h2---------0h2------0h2--------2---2-0-
|---------------------------------------------------------
|---------------------------------------------------------

--------------------------------------------------------
--------------------------------------------------------
------0-0-----0-0-----0-0-0-0------0-------0-0-0-0------
--0h2-----0h2-----0h2----------0h2---0-0h2--------------
--------------------------------------------------------
--------------------------------------------------------

-----------------------------------
-----------------------------------
-----0-0------0-2------------------
-0h2-----0h2-------0-2-2-2--2-0----
---------------------------------3-
-----------------------------------

-------------------------------------------
-------------------------------------------
-----------------------------------0-0-----
-------------------------------0h2---------
----0-3-3---0-3-3---0-3-0-0-0--------------
--3-------3-------3------------------------

-----------------------------------------------------
-----------------------------------------------------
-----0-0------0-0-0-0-2-0--0---------------0---------
-0h2------0h2----------------2-0-2-0---------2-0-2-0-
-----------------------------------------------------
--------------------------------------5b-3-----------


------------------------------------||
--------------3-5-3-----------------||
-------0-2-4--------2-0---2-0---0-0-||
------------------------------2-----||
------------------------------------||
-5b-3-------------------------------||
Suggest correction
Give kudos to tab author, rate the tab!
1 2 3 4 5
comments
print report bad tab
guest
Wanna post a correction for this tab? Suggest correction