Oops, an error
Loading. Please wait.

Heaven tab

version 1
version 1

Whole song

3,140 views 1 this week
5 commentsread comments
1 2 3 4 5
1 last vote to show rating
add to favorites
×
Save as Personal and add changes to this tab that will be seen only by you. Learn more ›
×
You can save this tab as Personal to edit and correct it or add notes. All changes will be seen only by you. Learn more »
launch autoscroll
font size
0
reset
how to read this tab
guitar tuner
edit
Autoscroll
slow
fast
+/-
esc
set tempo
stop
Suicidal Tendencies: Heaven
Album: Freedumb (1999)

A very good song from the album which also contains 'Cyco Vision'
(you might recognise it from the Tony Hawk's Pro Skater music).
Couldn't find a tab of it anywhere so here's my attempt.

          ^  +  ^   +  ^                        +  ^  +  ^
e---------0--0--0---0--0------------------------0--0--0--0---------|
b---------0--0--0---0--0------------------------0--0--0--0---------|
g---------0--0--0---0--0---2h4--5--4--2-----2---2--2--2--2---------|
d---------0--0--0---0--0---2-------------2--3---3--3--3--3---------|
a---------2--2--2------2-------------------------------------------|
E---0-----0--0--0------0-------------------------------------------|

Thats the intro for guitar 1, listen for rhythm, appergiate chords slightly.

^ =  play a down stroke

+ = play an up stroke

Joel Thompson

joel@thissucks.f9.co.uk

            
            
Suggest correction
Creating personal tab
Creating personal tab
You can edit any tab online and save it as your Personal.

You can edit, replace or remove any tab part or add personal notes – all changes will be seen only by you.

Personal tabs can be accessed anytime from any device, even offline.
Learn more »
Give kudos to tab author, rate the tab!
1 2 3 4 5
comments
print report bad tab
5 comments total. Showing first comments.
0 reply
Buttfingers 10 Nov 23, 2007 04:07 AM

Are you ****ing retarded ?

0 reply
DarkSilhoette13 593 Dec 16, 2009 10:10 AM

i think its good

0 reply
olslysatan 103 Mar 08, 2010 04:57 PM

Thats not the intro for guitar one you idiot. Thats not even what it sounds like. Im gonna learn this song and post the right version....im just guessing but it sounds like
e|----0--0--0--
b|----8--0--0--
g|----9--4--6--
d|----9--5--7--3
a|----7--5--7--3
E|-0~----3--5--1

I dont know but something like that prolly.. Ill figure it out on guitar later

guest
Wanna post a correction for this tab? Suggest correction