Oops, an error
Loading. Please wait.

Subliminal Bass Tab

version 3
version 3

Whole song

Interactive

55 views 3 this week
no commentswrite comment
1 2 3 4 5
2 more votes to show rating
add to favorites
launch autoscroll
font size
0
reset
guitar tuner
Autoscroll
slow
fast
+/-
esc
set tempo
stop
Help us to improve Ultimate-Guitar.com Take our survey!
×
Author
Difficulty
intermediate
About this tab version
Contains note timing, different licks etc. Was this info helpful? Yes No
Some things might be incorrect here.

I'm not too sure about the licks after some of the riffs.

Note duration:

W - whole
H - half
Q - quarter
E - eigth
S - sixteenth


[Verse 1]

    W            H+E   Q+E     Q  E E Q  E E     E E E Q  E E E
G|------------|-------------|-----------------|------------------|
D|------------|-------------|-----------------|------------------|
A|------------|-------------|-----------------|------------------|
E|------------|--------12\--|--0--0-0-3--3-3--|--2-2-2-1--1-3-1--|

    Q  E E Q  E E     E E E Q  E E E     Q  E E Q  E E     E E E Q  E Q
G|-----------------|------------------|-----------------|-----------------|
D|-----------------|------------------|-----------------|-----------------|
A|-----------------|------------------|-----------------|-----------------|
E|--0--0-0-3--3-3--|--2-2-2-1--1-1-1--|--0--0-0-3--3-3--|--2-2-2-1--1-\---|


    E E Q  E E Q      E E E Q  E E  E       E E Q  E E Q      E E E Q  E E E
G|-----------------|--------------------|-----------------|------------------|
D|-----------------|-----------9-10-12/-|-----------------|------------------|
A|------7------10--|--9-9-9-8-----------|------7------10--|--9-9-9-8--8-8-8--|
E|--0-0----0-0-----|--------------------|--0-0----0-0-----|------------------|


[Pre-Chorus]

    Q  E E Q  E E     E E E Q  E E E     Q  E E Q  E E     E E E H+E
G|-----------------|------------------|-----------------|-----------------|
D|-----------------|------------------|-----------------|-----------------|
A|-----------------|------------------|-----------------|-----------------|
E|--0--0-0-3--3-3--|--2-2-2-1--1-3-1--|--0--0-0-3--3-3--|--2-2-2-1--------|


[Chorus]

    S S S S E S S S S S S E S S     S S S S E S S S S S S E S S
G|-------------------------------|-------------------------------|
D|-------------------------------|-------------------------------|
A|-------------------------------|-------------------------------|
E|--0-0-0-0-3-4-3-0-0-0-0-3-4-3--|--0-0-0-0-3-4-3-0-0-0-0-3-4-3--|

Other instruments enter.

    S S S S E S S S S S S E S S     S S S S E S S S S S S E S S     H   H        H   S S S S
G|-------------------------------|-------------------------------|------------|---------------|
D|-------------------------------|-------------------------------|------------|---------------|
A|-------------------------------|-------------------------------|------------|---------------|
E|--0-0-0-0-3-4-3-0-0-0-0-3-4-3--|--0-0-0-0-3-4-3-0-0-0-0-3-4-3--|--5---5-----|--5/7-7-7-7-7--|

    S S S S E S S S S S S E S S     S S S S E S S S S S S E S S     H   H        H   S S S S
G|-------------------------------|-------------------------------|------------|---------------|
D|-------------------------------|-------------------------------|------------|---------------|
A|-------------------------------|-------------------------------|------------|---------------|
E|--0-0-0-0-3-4-3-0-0-0-0-3-4-3--|--0-0-0-0-3-4-3-0-0-0-0-3-4-3--|--5---5-----|--5/7-7-7-7-7--|

    S S S S E S S S S S S E S S     S S S S E S S S S S S E S S
G|-------------------------------|-------------------------------|
D|-------------------------------|-------------------------------|
A|-------------------------------|-------------------------------|
E|--0-0-0-0-3-4-3-0-0-0-0-3-4-3--|--0-0-0-0-3-4-3-0-0-0-0-3-4-3--|


[Verse 2]

    W            H+E     Q+E     Q  E E Q  E E     E E E Q  E Q
G|------------|---------------|-----------------|-----------------|
D|------------|---------------|-----------------|-----------------|
A|------------|---------------|-----------------|-----------------|
E|--0---------|--(0)-----12\--|--0--0-0-3--3-3--|--2-2-2-1--1-3---|

    Q  E E Q  E E     E E E Q  E E E     Q  E E Q  E E     E E E Q  E Q
G|-----------------|------------------|-----------------|-----------------|
D|-----------------|------------------|-----------------|-----------------|
A|-----------------|------------------|-----------------|-----------------|
E|--0--0-0-3--3-3--|--2-2-2-1--1-1-1--|--0--0-0-3--3-3--|--2-2-2-1--1-\---|


    E E Q  E E Q      E E E Q  E E E       E E Q  E E Q      E E E Q  E E E
G|-----------------|--------------------|-----------------|------------------|
D|-----------------|--------------------|-----------------|------------------|
A|------7------10--|--9-9-9-8--8-8-8----|------7------10--|--9-9-9-8--8-8-8--|
E|--0-0----0-0-----|--------------------|--0-0----0-0-----|------------------|


[Pre-Chorus]

    Q  E E Q  E E     E E E Q  E E E     Q  E E Q  E E     E E E H+E
G|-----------------|------------------|-----------------|-----------------|
D|-----------------|------------------|-----------------|-----------------|
A|-----------------|------------------|-----------------|-----------------|
E|--0--0-0-3--3-3--|--2-2-2-1--1-3-1--|--0--0-0-3--3-3--|--2-2-2-1--------|


[Chorus]

    S S S S E S S S S S S E S S     S S S S E S S S S S S E S S
G|-------------------------------|-------------------------------|
D|-------------------------------|-------------------------------|
A|-------------------------------|-------------------------------|
E|--0-0-0-0-3-4-3-0-0-0-0-3-4-3--|--0-0-0-0-3-4-3-0-0-0-0-3-4-3--|

    S S S S E S S S S S S E S S     S S S S E S S S S S S E S S     H   H        H   S S S S
G|-------------------------------|-------------------------------|------------|---------------|
D|-------------------------------|-------------------------------|------------|---------------|
A|-------------------------------|-------------------------------|------------|---------------|
E|--0-0-0-0-3-4-3-0-0-0-0-3-4-3--|--0-0-0-0-3-4-3-0-0-0-0-3-4-3--|--5---5-----|--5/7-7-7-7-7--|

    S S S S E S S S S S S E S S     S S S S E S S S S S S E S S     H   H        H   S S S S
G|-------------------------------|-------------------------------|------------|---------------|
D|-------------------------------|-------------------------------|------------|---------------|
A|-------------------------------|-------------------------------|------------|---------------|
E|--0-0-0-0-3-4-3-0-0-0-0-3-4-3--|--0-0-0-0-3-4-3-0-0-0-0-3-4-3--|--5---5-----|--5/7-7-7-7-7--|

    S S S S E S S S S S S E S S     S S S S E S S S S S S E S S
G|-------------------------------|-------------------------------|
D|-------------------------------|-------------------------------|
A|-------------------------------|-------------------------------|
E|--0-0-0-0-3-4-3-0-0-0-0-3-4-3--|--0-0-0-0-3-4-3-0-0-0-0-3-4-3--|


[Verse 3]

    W            H+E     Q+E     Q  E E Q  E E     E E E Q  E E E
G|------------|---------------|-----------------|-------------------|
D|------------|---------------|-----------------|-------------------|
A|------------|---------------|-----------------|-----------1-2-4/--|
E|--0---------|--(0)-----12\--|--0--0-0-3--3-3--|--2-2-2-1----------|

    Q  E E Q  E E     E E E Q  E Q       Q  E E Q  E E     E E E Q  E Q
G|-----------------|------------------|-----------------|-----------------|
D|-----------------|------------------|-----------------|-----------------|
A|-----------------|------------------|-----------------|-----------------|
E|--0--0-0-3--3-3--|--2-2-2-1--1-1/\--|--0--0-0-3--3-3--|--2-2-2-1--1-\---|


    E E Q  E E Q      E E E Q  E E E       E E Q  E E Q      E E E Q  S S S S S S
G|-----------------|--------------------|-----------------|-------------------------|
D|-----------------|--------------------|-----------------|-----------------7-9-10--|
A|------7------10--|--9-9-9-8--8-8-8----|------7------10--|--9-9-9-8--7-8-10--------|
E|--0-0----0-0-----|--------------------|--0-0----0-0-----|-------------------------|


[Pre-Chorus]

    Q  E E Q  E E     E E E Q  E E E     Q  E E Q  E E     E E E H+E
G|-----------------|------------------|-----------------|-----------------|
D|-----------------|------------------|-----------------|-----------------|
A|-----------------|------------------|-----------------|-----------------|
E|--0--0-0-3--3-3--|--2-2-2-1--1-3-1--|--0--0-0-3--3-3--|--2-2-2-1--------|


[Outro]

    S S S S E S S S S S S E S S     S S S S E S S S S S S E S S     E
G|-------------------------------|-------------------------------|------|
D|-------------------------------|-------------------------------|------|
A|-------------------------------|-------------------------------|------|
E|--0-0-0-0-3-4-3-0-0-0-0-3-4-3--|--0-0-0-0-3-4-3-0-0-0-0-3-4-3--|--0---|

************************************

| x   Dead note
| g   Grace note
| (n) Ghost note
| h   Hammer-on
| p   Pull-off
| r   Release
| >   Accented note
| t   Tapping
| b   Bend
| br  Bend release
| pb  Pre-bend
| pbr Pre-bend release
| /   Slide up
| \   Slide down
| ~   Vibrato
| s   Slap
| P   Pop
| PM  Palm mute
| TR  Trill
| N   Tremolo

************************************
Suggest correction
Give kudos to tab author, rate the tab!
1 2 3 4 5
comments
print report bad tab
guest
You may want to rate the tab now too:
select rating
Wanna post a correction for this tab? Suggest correction