Oops, an error
Loading. Please wait.

You Cant Bring Me Down Tab

version 1
version 1

Whole song

Interactive

25,023 views 51 this week
3 commentsread comments
1 2 3 4 5
x 7
add to favorites
launch autoscroll
font size
0
reset
how to read this tab
guitar tuner
×
Best way to learn
"You Cant Bring Me Down"
Autoscroll
slow
fast
+/-
esc
set tempo
stop
Suicidal Tendencies - You can't bring me down

 [Intro]- slow (with heaps of vibrato)
e|-----------------------------------------------------------------|
B|--5------------12-------------8-----------15-----------11--------|
G|-----------------------------------------------------------------|
D|-----------------------------------------------------------------|
A|-----------------------------------------------------------------|
E|-----------------------------------------------------------------|

e|-----------------0-----------------|
B|-----------3---2---2------0---0----|
G|---------0---0-------0--3---3------|
D|-------2---------------------------|
A|-----2-----------------------------|
E|---0-------------------------------|

e|-----------0-------------0---------------0-----------------------|
B|-------0-----0---3---0-----0---------0-----0---3---1-0-----------|
G|-----0---0-----0---0---0-----0-----0---0-----0---0-----2-0-------|
D|-------------------------------2---------------------------2-0---|
A|---3-----------------------------0-------------------------------|
E|-----------------------------------------------------------------|

e|-----------0---5---3-2^3^2-----------------0---------------------|
B|---------0-----------------3-------0-3---------------------------|
G|-------0-----0---0---------------0-----0-------------------------|
D|-----2-------------------------2---------2-----------------------|
A|---3-------------------------0-----------------------------------|
E|-----------------------------------------------------------------|

e|-------------------------------------------0---------------------|
B|-----------3---2---------------------3---2---2-----0---0---------|
G|---------0---0---------------------0---0-------0-3---3-----------|
D|-------2-------------------------2-------------------------------|
A|-----2-------------------------2---------------------------------|
E|---0-------------------------0-----------------------------------|

e|-----------------------------------------------0---------------0-|
B|-----------3---2-------------------------3---2---2-----0-------0-|
G|---------0---0-------------------------0---0-------0-3---3-0---0-|
D|-------2-------------------------------------------------------2-|
A|-----2---------------------------------------------------------2-|
E|---0-----------------------------------------------------------0-|

(rake last Em chord from high to low 
approximation to part of the slow solo at the start - most of these
notes are in the right place.
question marks indicate unknown harmonics or feedback)
e|-----------------------------------------------------------------|
B|---------15^(17)--13--12--13-13-12^13^12-------------------------|
G|----/9------------------------------------14-12\11-11^12---------|
D|-----------------------------------------------------------------|
A|-----------------------------------------------------------------|
E|-----------------------------------------------------------------|

e|------------------------------------------------17^(19)----------|
B|b------------------7-8/10------15^(17)---(17)--------------------|
G|g--/4-4^5/7/9-9-----------9--------------------------------------|
D|-----------------------------------------------------------------|
A|-----------------------------------------------------------------|
E|-----------------------------------------------------------------|

e|-----------------------------------------------------------------|
B|--15^(17)-15-----------------------------15^(17)^-15-------------|
G|-------------14^(16)-14^12-12-^14^12\9---------------------------|
D|-----------------------------------------------------------------|
A|-----------------------------------------------------------------|
E|-----------------------------------------------------------------|

         (hold)  fdbk       dive with whammy
e|------------------------------------------------------------------|
B|--15^(17)--?------------------------------------------------------|
G|------------------------------------------------------------------|
D|------------------------------------------------------------------|
A|------------------------------------------------------------------|
E|------------------------------------------------------------------|

(Now some good distortion and mute those chunks)
e|-----------------------------------------------------------------|
B|-----------------------------------------------------------------|
G|---------------------------------------------2-------------------|
D|---2-------------5-------------2-------------2-------------2-----|
A|---2-------------5-------------2-------------0------0--0-0-2-----|
E|---0------0--0-0-3------3--3-3-0------0--0-0---------------0-----|

e|-----------------------------------------------------------------|
B|-----------------------------------------------------------------|
G|-----------------------------------------------------------------|
D|----------5-------------2-------------3--------------------------|
A|----------5-------------2-------------3--------------------------|
E|---0--0-0-3------3--3-3-0------0--0-0-1--------------------------|

[main riff bits]
e|---------------------------------------|
B|---------------------------------------|
G|--------------------------------------|x2
D|d--------------------------------------|
A|a--2-------------------------------3---|
E|e--0--0-0-0-0-0-0--3^5--x-x-3^5--x-1---|

e|---------------------------------------------|
B|---------------------------------------------|
G|g---------------------------------0----------|
D|d---------------------------------0----------|
A|a---------------------------------------3---5|
E|e----0-0-0-0-0-0--3^5--x-x-3^5--x-3-----1-113|

e|-----------------------------------------------------------------|
B|-----------------------------------------------------------------|
G|-----------------------------------------------------------------|
D|-----------------------------------------------------------------|
A|a---2-------------5-------------4-------------3-------------2----|
E|e---0-0-0-0-0-0-0-3-0-0-0-0-0-0-2-0-0-0-0-0-0-1-1-1-1-1-1-1-0----|

e|-------------------------------------------------------------------|
B|-------------------------------------------------------------------|
G|-------------------------------------------------------------------|
D|d--------------9--7--6---6-x-x--5-5---5----------------------------|
A|a--------------7--5--4---4-x-x--3-3-x-3\2--------------------------|
E|e--0-0-0-0-0-0----------------------------3-2-0--------------------|

e|-----------------------------------------------------------------|
B|b------3-------0-------0-------0---------------------------------|
G|g----0---0---0---0---0---0---0---0-------------------------------|
D|d--2-------------------------------------------------------------|
A|a----------5-------4-------3-------------------------------------|
E|e----------------------------------------------------------------|

e|-----------------------------------------------------------------|
B|b----------------------------------------------------------------|
G|g--9-----9-----7-----7-----6-----6-----5-------------------------|
D|d--9-----9-----7-----7-----6-----6-----5-------------------------|
A|a--7-----7-----5-5-5-5-5-5-4-4-4-4-4-4-3-3-3-3-2-----------------|
E|e----0-0---0-0-----------------------------------3-2-------------|
                                         
(This bit cuts in on the end of that last one 
 you'll figure it out.)
e|-----------------------------------------------------------------|
B|b----------------------------------------------------------------|
G|g--5-----------------------4-----4-----4-----4-----5-5-5\4-5--8--|
D|d--5---4-5-----5-----5-4-5-4-----4-----4-----4-----5-5-5\4-5--8--|
A|a--3---4-5-----5-----5-4-5-2-2-2-2-2-2-2-2-2-2-2-2-3-3-3\2-3--6--|
E|e----0-2-3-3-3-3-3-3-3-2-3---------------------------------------|
Suggest correction
comments
print report bad tab
3 comments total.
0 reply
littlewalker 10 Jul 15, 2006 04:09 AM

thanks for the tab dude. (australia represent!! im from melbourne)
hopefully someone can figure out some of the lead parts.
well over my head though.

0 reply
mikea93 10 Mar 31, 2007 06:39 PM

ya this tab is spread out evrywhere but still good

0 reply
steve.bouchard. 10 Apr 17, 2013 01:56 PM

Nice Thank Sir!

But how to find the whole tabs song including solos?

Here's would help the as following :
1)http://www.youtube.com/watch?v=C34lrCI-DFQ
2)http://www.guitaretab.com/s/suicidal-tendencies/18702.html

guest
You may want to rate the tab now too:
select rating
Wanna post a correction for this tab? Suggest correction