Oops, an error
Loading. Please wait.

And Then She Bled Bass Tab

4,459 views 9 this week
2 commentsread comments
1 2 3 4 5
x 6
add to favorites
launch autoscroll
font size
0
reset
guitar tuner
Autoscroll
slow
fast
+/-
esc
set tempo
stop
Help us to improve Ultimate-Guitar.com Take our survey!
×
Author
Difficulty
Tuning
advanced
A E A D F# B
++++++++++++++++++++++++++++++++++++++
|Suicide Silence-...and then she bled|
++++++++++++++++++++++++++++++++++++++

ok,I know for a fact Suicide Silence plays a five string bass on The Cleansing and I
a six string bass on NTTB because they play 8 string guitars on NTTB.So I tabbed this on a
string bass because most of us don't have more than a four string bass. And on The 
they play in Drop A and I've heard they play in Drop G on NTTB.But I did it in Drop A
So since I know all this stuff please don't give me any crap about it. This tab probably 
but check it out anyway!!!!!If this is good I'll tab Wasted next!!!PLEASE comment and RATE!!!!!!!!

Tuning:Drop A (DAEA)
                                  after the sound affects
D|--------------------------------|-----------------|-----------------|
A|--------------------------------|-----------------|-----------------|
E|--------------------------------|-----------------|-----------------|
A|--------------------------------|-2~---4\-0~---1~-|-2~---4\-0~---1~-|

|-----------------|-----------------|
|-----------------|-----------------|
|-----------------|-----------------|
|-2~---4\-0~---1~-|-2~---4\-0~---1~-|

|-----------------------------|-----------------------------|
|-----------------------------|-----------------------------|
|-----------------------------|-----------------------------|
|-2-222--222-22-0-000--000-00-|-2-222--222-22-0-000--000-00-|

|-------------------------------------|-----------------------------|
|-------------------------------------|-----------------------------|
|-------------------------------------|-----------------------------|
|-0x-12\--2-222--222-22-0-000--000-00-|-2-222--222-22-0-000--000-00-|

|-----------------|-----------------|
|-----------------|-----------------|
|-----------------|-----------------|
|-2~---4\-0~---1~-|-2~---4\-0~---1~-|

|-----------------------------------|-----------------------------------|
|-----------------------------------|-----------------------------------|
|-----------------------------------|-----------------------------------|
|-2-2-2-2-2-2-2-2-2-2-2-2-2-2-2-2-2-|-0-0-0-0-0-0-0-0-0-0-0-0-0-0-0-0-0-|

|-----------------------------------|-----------------------------------|
|-----------------------------------|-----------------------------------|
|-----------------------------------|-----------------------------------|
|-5-5-5-5-5-5-5-5-5-5-5-5-5-5-5-5-5-|-3-3-3-3-3-3-3-3-3-3-3-3-3-3-3-3-3-|

|-----------------------------------|-----------------------------------|
|-----------------------------------|-----------------------------------|
|-----------------------------------|-----------------------------------|
|-2-2-2-2-2-2-2-2-2-2-2-2-2-2-2-2-2-|-0-0-0-0-0-0-0-0-0-0-0-0-0-0-0-0-0-|

|-----------------------------------|-----------------------------------|
|-----------------------------------|-----------------------------------|
|-----------------------------------|-----------------------------------|
|-5-5-5-5-5-5-5-5-5-5-5-5-5-5-5-5-5-|-3-3-3-3-3-3-3-3-3-3-3-3-3-3-3-3-3-|

|-----------------------------------|-----------------------------------|
|-----------------------------------|-----------------------------------|
|-----------------------------------|-----------------------------------|
|-2~--------------------------------|-0~--------------------------------|

|-----------------------------------|-----------------------------------|
|-----------------------------------|---------------------------------2-|
|-----------------------------------|-------------------------------4---|
|-5~--------------------------------|-3~------------------------4-6-----|

|---------------------------------------------------|
|---------------------------------------------------|
|---------------------------------------------------|
|-2-0--2-0--2-0--2-0--2-0--2-0--2-0--2-0--2-0--2-0--|

|-----------------------------------|
|-----------------------------------|
|-----------------------------------|
|-2-0--2-0--2-0--2-0--2-0--2-0--2-0-|

palm mute through this time
|------------------------------------------------------------|
|------------------------------------------------------------|
|------------------------------------------------------------|
|-2-0x--2-0x--2-0x--2-0x--2-0x--2-0x--2-0x--2-0x--2-0x--2-0x-|

|------------------------------------------------------------------|
|------------------------------------------------------------------|
|------------------------------------------------------------------|
|-2-0x--2-0x--2-0x--2-0x--2-0x--2-0x--2-0x--2-0x--2-0x--2-0x--2-0x-|

|-----------------|-----------------|-----------------|-----------------|
|-----------------|-----------------|-----------------|-----------------|
|-----------------|-----------------|-----------------|-----------------|
|-2~---4\-0~---1~-|-2~---4\-0~---1~-|-2~---4\-0~---1~-|-2~---4\-0~---1~-|

|-----------------|-----------------------------------|
|-----------------|-----------------------------------|
|-----------------|-----------------------------------|
|-2~---4\-0~---1~-|-2~--------------------------------|

Tab Legend------in case you don't know
|x=palm mutes  |
|/=slide up    |
|\=slide down  |
|~=let ring    |
----------------Corrections are welcome

Please Comment and Rate!!!!

+++++++
|Enjoy|
+++++++
Suggest correction
comments
print report bad tab
2 comments total.
0 reply
Marcusaurus 94 Nov 09, 2009 07:46 PM

dude this is perfect....

0 reply
HandsOfaBassist 10 Feb 27, 2015 08:41 PM

this is dead on, except for the tuning is in drop g.

guest
You may want to rate the tab now too:
select rating
Wanna post a correction for this tab? Suggest correction