Oops, an error
Loading. Please wait.

And Then She Bled Tab

version 1
version 1

Whole song

15,660 views 9 this week
11 commentsread comments
1 2 3 4 5
x 4
add to favorites
×
Save as Personal and add changes to this tab that will be seen only by you. Learn more ›
×
You can save this tab as Personal to edit and correct it or add notes. All changes will be seen only by you. Learn more »
save as personal
new!
launch autoscroll
font size
0
reset
how to read this tab
guitar tuner
Autoscroll
slow
fast
+/-
esc
set tempo
stop
Author
Difficulty
Tuning
novice
E A D G B E
0:00
e|------10----------10----------|
B|12----------12----------------|
G|------------------------------|
D|------------------------------|
A|------------------------------|
E|------------------------------|
A|------------------------------|

0:28
e|-------------------|
B|-------------------|
G|-------------------|
D|12----12--11----11-|
A|-------------------|
E|-------------------|
A|-------------------|

0:34
e|------------------------|
B|------------------------|
G|------------------------|
D|12----12--11-----11--12-|
A|----11--11-----11--11---|
E|------------------------|
A|------------------------|

0:45
e|-----------------------------------|
B|-----------------------------------|
G|-----------------------------------|
D|12--11----11------12---------11----|
A|--------11-------------------------|
E|-----------------------------------|
A|-----------------------------------|

0:57
e|------------------------|----------------------------|
B|------------------------|----------------------------|
G|------------------------|----------------------------|
D|------------------------|----------------------------|
A|------------------------|----------------------------|
E|2-----------2---2-2-----|----2---2-2---------2---2---|
A|2-----------2---2-2-----|----2---2-2---------2---2---|

e|------------------------|----------------------------|
B|------------------------|----------------------------|
G|------------------------|----------------------------|
D|------------------------|----------------------------|(x2)
A|------------------------|----------------------------|
E|0-----------0---0-0-----|----0---0-0---------0---0---|
A|0-----------0---0-0-----|----0---0-0---------0---0---|


1:12
e|----------------|
B|----------------|
G|----------------|
D|----------------|
A|----------------|
E|2---------------|
A|2---------------|

1:13
e|------------------------|----------------------------|
B|------------------------|----------------------------|
G|------------------------|----------------------------|
D|------------------------|----------------------------|
A|------------------------|----------------------------|
E|2-----------2---2-2-----|----2---2-2---------2---2---|
A|2-----------2---2-2-----|----2---2-2---------2---2---|

e|------------------------|----------------------------|
B|------------------------|----------------------------|
G|------------------------|----------------------------|
D|------------------------|----------------------------|(x2)
A|------------------------|----------------------------|
E|0-----------0---0-0-----|----0---0-0---------0---0---|
A|0-----------0---0-0-----|----0---0-0---------0---0---|

1:28
e|------------------------------------------------|
B|------------------------------------------------|
G|------------------------------------------------|
D|12----12--11----11---12-------12--11------11----|
A|----------------------------11--11------11--11--|
E|------------------------------------------------|
A|------------------------------------------------|

1:43
e|--------------------------------|--------------------------------|
B|--------------------------------|--------------------------------|
G|--------------------------------|--------------------------------|
D|--------------------------------|--------------------------------|
A|--------------------------------|--------------------------------|
E|2-2-2-2-2-2-2-2-2-2-2-2-2-2-2-2-|0-0-0-0-0-0-0-0-0-0-0-0-0-0-0-0-|
A|2-2-2-2-2-2-2-2-2-2-2-2-2-2-2-2-|0-0-0-0-0-0-0-0-0-0-0-0-0-0-0-0-|


e|--------------------------------|--------------------------------|
B|--------------------------------|--------------------------------|
G|--------------------------------|--------------------------------|
D|--------------------------------|--------------------------------|(x2)
A|--------------------------------|--------------------------------|
E|5-5-5-5-5-5-5-5-5-5-5-5-5-5-5-5-|3-3-3-3-3-3-3-3-3-3-3-3-3-3-3-3-|
A|5-5-5-5-5-5-5-5-5-5-5-5-5-5-5-5-|3-3-3-3-3-3-3-3-3-3-3-3-3-3-3-3-|


2:13
e|----------------|----------------|----------------|----------------|
B|----------------|----------------|----------------|----------------|
G|----------------|----------------|----------------|----------------|
D|----------------|----------------|----------------|----------------|(x2)
A|----------------|----------------|----------------|----------------|
E|2---------------|0---------------|5---------------|3---------------|
A|2---------------|0---------------|5---------------|3---------------|

2:28
e|----------------|----------------|----------------|----------------|
B|----------------|----------------|----------------|----------------|
G|----------------|----------------|----------------|----------------|
D|----------------|----------------|----------------|----------------|
A|----------------|----------------|----------------|----------------|
E|2-0---2-0---2-0-|--2-0---2-0---2-|0---2-0---2-0---|2-0---2-0---2-0-|
A|2-0---2-0---2-0-|--2-0---2-0---2-|0---2-0---2-0---|2-0---2-0---2-0-|
                                                                PM-|
2:36
e|----------------|----------------|----------------|----------------|----------------|
B|----------------|----------------|----------------|----------------|----------------|
G|----------------|----------------|----------------|----------------|----------------|
D|----------------|----------------|----------------|----------------|----------------|
A|----------------|----------------|----------------|----------------|----------------|
E|--2-0---2-0---2-|0---2-0---2-0---|2-0---2-0---2-0-|--2-0---2-0---2-|0---2-0---2-0---|
A|--2-0---2-0---2-|0---2-0---2-0---|2-0---2-0---2-0-|--2-0---2-0---2-|0---2-0---2-0---|
    PM-|  PM-|  PM-|   PM-|  PM-|   PM-|  PM-|  PM-|   PM-|  PM-|  PM--|  PM-|  PM-|

e|----------------|----------------|----------------|
B|----------------|----------------|----------------|
G|----------------|----------------|----------------|
D|----------------|----------------|----------------|
A|----------------|----------------|----------------|
E|2-0---2-0---2-0-|--2-0---2-0---2-|0---2-0---------|
A|2-0---2-0---2-0-|--2-0---2-0---2-|0---2-0---------|
  PM-|  PM-|  PM-|   PM-|  PM-|  PM--|  PM-|

2:50
e|------14----|
B|12-11----12-|
G|------------|
D|------------|(x17)
A|------------|
E|------------|
A|------------|

************************************

| PM   Palm Mute

************************************
Suggest correction
comments
print report bad tab
11 comments total. Showing first comments.
0 reply
Touch_Of_Red 165 Jul 27, 2009 11:52 AM

great tab!

can you tab smoke or no time to bleed?

0 reply
grenade007 10 Jul 27, 2009 05:57 PM

sounds good to me! could you please do Disengage, i think it has the best riffs from the new SS album.

+1 reply
Metal4themasses 176 Jul 27, 2009 06:23 PM

Cool! But you should tab Wake Up. I could but I can't tab the solo. great job though!

guest
You may want to rate the tab now too:
select rating
Wanna post a correction for this tab? Suggest correction