Oops, an error
Loading. Please wait.

And Then She Bled Tab

version 2
version 2

Whole song

971 views 9 this week
2 commentsread comments
1 2 3 4 5
2 more votes to show rating
add to favorites
launch autoscroll
font size
0
reset
how to read this tab
guitar tuner
Autoscroll
slow
fast
+/-
esc
set tempo
stop
Help us to improve Ultimate-Guitar.com Take our survey!
×
Author
Difficulty
Tuning
intermediate
A E A D F# B
Song: ...and Then She Bled
Artist:  Suicide Silence
Tabber:  IanSaysRawr
Tuning:  Drop G - 7-string (low to high) [G D G C F A D]


This is 100% by ear. There are a few spots that probably aren't completely
correct, but they're very close. I didn't put how many repeats there are,
because there are way too many for my patience. But please rate, and comment
or message me any corrections you feel fit. Thanks!

**EDIT**
5/30/11: Changed tab due to wrong tuning.
         Lowered tuning one step.
         Raised all notes one step except the "bridge."

|-----------------------------------|
|o-13~-13-12~--12-13~--13-12~--12--o|
|--14~-14-13~--13-14~--14-13~--13---|
|-----------------------------------|
|-----------------------------------|
|o---------------------------------o|
|-----------------------------------|

|-----------------------------------------|
|----------------------------------------o|
|-----------------------------------------|
|-----------------------------------------|
|-5~-5-55--5-55--5-5--2~-2-22--2-22--2-2--|
|-5~-5-55--5-55--5-5--2~-2-22--2-22--2-2-o|
|-5~-5-55--5-55--5-5--2~-2-22--2-22--2-2--|
     . ..  . ..  . .     . ..  . ..  . .
(bass slide)

Not 100% correct, but pretty close.
|------------------------------------|
|o-13~---13-12~--12-13~--13-12~--12-o|
|--14~---14-13~--13-14~--14-13~--13--|
|------------------------------------|
|------------------------------------|
|o----------------------------------o|
|------------------------------------|
|
|------10----10----10----10----10----10---|
|o-13~---13----13----12~---12----12------o|
|--14~-----14----14--13~-----13----13-----|
|-----------------------------------------|
|-----------------------------------------|
|o---------------------------------------o|
|-----------------------------------------|

|------------------------------------|
|o-13~---13-12~--12-13~--13-12~--12-o|
|--14~---14-13~--13-14~--14-13~--13--|
|------------------------------------|
|------------------------------------|
|o----------------------------------o|
|------------------------------------|
|
|-----------------------------------------|
|----------------------------------------o|
|-----------------------------------------|
|-----------------------------------------|
|-5~-5-55--5-55--5-5--2~-2-22--2-22--2-2--|
|-5~-5-55--5-55--5-5--2~-2-22--2-22--2-2-o|
|-5~-5-55--5-55--5-5--2~-2-22--2-22--2-2--|
     . ..  . ..  . .     . ..  . ..  . .

|------------------------------------|
|o-13~---13-12~--12-13~--13-12~--12-o|
|--14~---14-13~--13-14~--14-13~--13--|
|------------------------------------|
|------------------------------------|
|o----------------------------------o|
|------------------------------------|

|------------------------------------------------------------------------|
|o----------------------------------------------------------------------o|
|------------------------------------------------------------------------|
|------------------------------------------------------------------------|
|--4~-4~-4~4~44~4~-4\2~-2~-2~2~22~2~-7/8~-8~-8~8~88~8~-85~-5~-5~5~55~5~--|
|o-4~-4~-4~4~44~4~-4\2~-2~-2~2~22~2~-7/8~-8~-8~8~88~8~-85~-5~-5~5~55~5~-o|
|--4~-4~-4~4~44~4~-4\2~-2~-2~2~22~2~-7/8~-8~-8~8~88~8~-85~-5~-5~5~55~5~--|

|-----------------------------------------------------------------------|
|o---------------------------------------------------------------------o|
|-----------------------------------------------------------------------|
|-----------------------------------------------------------------------|
|--4~----------------2~----------------8~--------------5~---------------|
|o-4~----------------2~----------------8~--------------5~--------------o|
|--4~----------------2~----------------8~--------------5~---------------|

"Bridge"
|---------------------------------------------------|
|o-------------------------------------------------o|
|---------------------------------------------------|
|---------------------------------------------------|
|---------------------------------------------------|
|o-------------------------------------------------o|
|-2-0--2-0--2-0--2-0--2-0--2-0--2-0--2-0--2-0--2-0--|
(the first five 2's are hard to hear due to the snare)

|----------------------------------------------------|
|o--------------------------------------------------o|
|----------------------------------------------------|
|----------------------------------------------------|
|--2-0--2-0--2-0--2-0--2-0--2-0--2-0--2-0--2-0--2-0--|
|o-2-0--2-0--2-0--2-0--2-0--2-0--2-0--2-0--2-0--2-0-o|
|--2-0--2-0--2-0--2-0--2-0--2-0--2-0--2-0--2-0--2-0--|
   . .  . .  . .  . .  . .  . .  . .  . .  . .  . .

|-----------------------------------------------------------|
|o-13~--------13-12~--12--12---13~-------13-12~---12--12---o|
|--12~--------12-13~----13--13-12~-------12-13~-----13--13--|
|-----------------------------------------------------------|
|-----------------------------------------------------------|
|o---------------------------------------------------------o|
|-----------------------------------------------------------|
|
|--------15~-----------15~-----------15~-----------15~------|
|o---13-----13-----13-----13-----13-----13-----13-----13---o|
|--16--16-----16-16--16-----16-16--16-----16-16--16-----16--|
|-----------------------------------------------------------|
|-----------------------------------------------------------|
|o---------------------------------------------------------o|
|-----------------------------------------------------------|


|--------15~-----------15~-----------15~-----------15~------|
|o---13-----13-----13-----13-----13-----13-----13-----13---o|
|--16--16-----16-16--16-----16-16--16-----16-16--16-----16--|
|-----------------------------------------------------------|
|-----------------------------------------------------------|
|o---------------------------------------------------------o|
|-----------------------------------------------------------|
 (repeat and fade)
Suggest correction
Give kudos to tab author, rate the tab!
1 2 3 4 5
comments
print report bad tab
2 comments total.
0 reply
escalade 315 May 27, 2011 08:12 PM

Close, man. This song, however, is played in drop G, so the 'really heavy' part near the end is using the low G, so everything sounds right, except that part. Nice try, though.

0 reply
IanSaysRawr 178 May 30, 2011 02:57 PM

@escalade
ohhh okay, thanks man.

i was wondering why that didn't sound exactly right.

guest
You may want to rate the tab now too:
select rating
Wanna post a correction for this tab? Suggest correction