Oops, an error
Loading. Please wait.

Bludgeoned To Death Tab

version 1
version 1

Whole song

Interactive

31,898 views 9 this week
10 commentsread comments
1 2 3 4 5
accurate
x 7
add to favorites
launch autoscroll
font size
0
reset
how to read this tab
guitar tuner
Tab Pro tools
  • play this tab
  • loop segment
  • change instrument
  • show fretboard
  • metronome
×
Best way to learn
"Bludgeoned To Death"
Autoscroll
slow
fast
+/-
esc
set tempo
stop
Contributor
Difficulty
Tuning
novice
A E A D F# B
There are two tabs in this file.
The first is the Bludgeoned To Death from The Cleansing (2007) album
and the second is the same song but from a demo.
There are noticable differences in both songs including but not limited to:
longer breakdown, some harmonization and tempo changes.
UG will not allow me to submit two versions of the song so here they are. Scroll down 
enjoy. Happy playing!

#----------------------------------PLEASE NOTE---------------------------------#
#This file is the author's own work and represents their interpretation of the #
#song. You may only use this file for private study, scholarship, or research. #
#------------------------------------------------------------------------------#

BLUDGEONED TO DEATH
As recorded by Suicide Silence
(From the 2007 Album THE CLEANSING)

Transcribed by jonathanonfire
	

Words and Music by Suicide Silence

Gtr I (A E A D Gb B) - 'Left Channel'
Gtr II (A E A D Gb B) - 'Right Channel'

 Intro                     "You're worthless.."
  Deathcore Q=135
  Eb5 F#F5EbN.C.            Eb5
 2/4                       4/4
  Gtr I
  PM------|                 PM-------------------------------
                            |-3-|   |-3-|   |-3-|   |-3-|
  S S S S E  S      +S      S S S E S S S E S S S E S S S E
|-----------------------||----------------------------------|
|-----------------------||o---------------------------------|
|-----------[3]b3.5r(3)-||----------------------------------|
|-----------------------||----------------------------------|
|-1-1-4-3-1-------------||o-1-1-1-1-1-1-1-1-1-1-1-1-1-1-1-1-|
|-1-1-4-3-1-------------||--1-1-1-1-1-1-1-1-1-1-1-1-1-1-1-1-|
|
| Gtr II
| PM------|                 PM-------------------------------
|                           |-3-|   |-3-|   |-3-|   |-3-|
| S S S S E  S      +S      S S S E S S S E S S S E S S S E
|-----------------------||----------------------------------|
|-----------------------||o---------------------------------|
|-----------------------||----------------------------------|
|-----------[5]b5.5r(5)-||----------------------------------|
|-1-1-4-3-1-------------||o-1-1-1-1-1-1-1-1-1-1-1-1-1-1-1-1-|
|-1-1-4-3-1-------------||--1-1-1-1-1-1-1-1-1-1-1-1-1-1-1-1-|


                  N.C.
 ---------------| TPTPTPTP
  |-3-|   |-3-|
  S S S E S S S E E E E E   4x
|---------------------------||
|--------------------------o||
|---------------------------||
|---------------------------||
|-1-1-1-1-1-1-1-1---4---3--o||
|-1-1-1-1-1-1-1-1-1---1-----||
|
|---------------| TPTPTPTP
| |-3-|   |-3-|
| S S S E S S S E E E E E   4x
|---------------------------||
|--------------------------o||
|---------------------------||
|---------------------------||
|-1-1-1-1-1-1-1-1---4---3--o||
|-1-1-1-1-1-1-1-1-1---1-----||


                                                                   Slower Q=122
  Eb5 F#F5EbN.C.        Eb5 F#F5Eb5           N.CN.C.              Fb5  Eb5
  Gtr I
  PM------|             PM------|                TPTPTPTPTPTPTPTP  PM---|
  S S S S E  S      +S  S S S S E  S      +S     E E E E E E E E   H    H
|----------------------------------------------|-----------------|-----------||
|----------------------------------------------|-----------------|-----------||
|-----------[3]b3.5r(3)-----------[3]b3.5r(3)--|-----------------|-----------||
|----------------------------------------------|-----------------|-----------||
|-1-1-4-3-1-------------1-1-4-3-1--------------|-------3-------2-|-2----1----||
|-1-1-4-3-1-------------1-1-4-3-1--------------|-2-5-2---1-4-1---|-3----2----||
|
| Gtr II
| PM------|             PM------|                                  PM---|
| S S S S E  S      +S  S S S S E  S      +S     W                 H    H
|----------------------------------------------|-----------------|-----------||
|----------------------------------------------|-----------------|-----------||
|----------------------------------------------|-----------------|-----------||
|-----------[5]b5.5r(5)-----------[5]b5.5r(5)--|-----------------|-----------||
|-1-1-4-3-1-------------1-1-4-3-1--------------|-----------------|-2----1----||
|-1-1-4-3-1-------------1-1-4-3-1--------------|-----------------|-3----2----||


 "Your curses with.."
  N.C.                      E5G5EbF#5 N.C.                      E5G5EbF#5
  Gtrs I, II
  TPTPTPTPTPTPTPTP  TPTPTPTPPM----|   TPTPTPTPTPTPTPTP  TPTPTPTPPM----|
  E E E E E E E E   E E E E E E E E   E E E E E E E E   E E E E E E E E
|-----------------|-----------------|-----------------|------------------|
|-----------------|-----------------|-----------------|------------------|
|-----------------|-----------------|-----------------|------------------|
|-----------------|-----------------|-----------------|------------------|
|-------3-------2-|-------3-2-5-1-4-|-------3-------2-|-------3-2-5-1-4--|
|-2-5-2---1-4-1---|-2-5-2---2-5-1-4-|-2-5-2---1-4-1---|-2-5-2---2-5-1-4--|


  N.C.
  TPTPTPTPTPTPTPTP  TPTPTPTPTPTPTPTP
  E E E E E E E E   E E E E E E E E
|-----------------|-----------------|
|-----------------|-----------------|
|-----------------|-----------------|
|-----------------|-----------------|
|-------3-------2-|-------3-------2-|
|-2-5-2---1-4-1---|-2-5-2---1-4-1---|


                                                                    Slower Q=112
  E5G5E5N.C.        EbF#EbN.C.          E5G5E5N.C.        E5G5EbF#5 N.C.
  Gtr I
  PM--|             PM--|               PM--|             PM----|
  E E E  S      +S  E E E  S      +S    E E E  S      +S  E E E E   W
|-------------------------------------|---------------------------|------||
|-------------------------------------|---------------------------|------||
|-------[3]b3.5r(3)-------------------|-------[3]b3.5r(3)---------|------||
|-------------------------[2]b2.5r(2)-|---------------------------|------||
|-2-5-2-------------1-4-1-------------|-2-5-2-------------2-5-1-4-|------||
|-2-5-2-------------1-4-1-------------|-2-5-2-------------2-5-1-4-|------||
|
| Gtr II
| PM--|             PM--|               PM--|             PM----|
| E E E  S      +S  E E E  S      +S    E E E  S      +S  E E E E   W
|-------------------------------------|---------------------------|------||
|-------------------------------------|---------------------------|------||
|-------------------------------------|---------------------------|------||
|-------[5]b5.5r(5)-------------------|-------[5]b5.5r(5)---------|------||
|-2-5-2-------------1-4-1-[1]b1.5r(1)-|-2-5-2-------------2-5-1-4-|------||
|-2-5-2-------------1-4-1-------------|-2-5-2-------------2-5-1-4-|------||


 Breakdown
  Ebb5
  Gtrs I, II
  PM-------------------------------------------|
  H    H      H    H      H    H      H    E E Q
|-----------|-----------|-----------|--------------|
|-----------|-----------|-----------|--------------|
|-----------|-----------|-----------|--------------|
|-----------|-----------|-----------|--------------|
|-0----0----|-0----0----|-0----0----|-0----0-0-0---|
|-1----1----|-1----1----|-1----1----|-1----1-1-1---|


  PM---------------------------------------------|
  H    H      H    E E Q    H    H      H    E E Q
|-----------|-------------|-----------|--------------|
|-----------|-------------|-----------|--------------|
|-----------|-------------|-----------|--------------|
|-----------|-------------|-----------|--------------|
|-0----0----|-0----0-0-0--|-0----0----|-0----0-0-0---|
|-1----1----|-1----1-1-1--|-1----1----|-1----1-1-1---|


  PM-------------------|
  H    H      H    E E Q
|-----------|-------------||
|-----------|-------------||
|-----------|-------------||
|-----------|-------------||
|-0----0----|-0----0-0-0--||
|-1----1----|-1----1-1-1--||


 Bridge
  Faster Q=132
  N.C.
                                   2/4
  Gtr I
  S S S S S S S S S S S S S S S S   S S S S S S S S
|---------------------------------|-----------------|
|---------------------------------|-----------------|
|---------------------------------|-----------------|
|---------------------------------|-----------------|
|---------------------------------|-----------------|
|-4-2-1-1-1-1-4-2-1-1-1-1-4-2-1-1-|-1-1-4-2-1-1-1-1-|
|
| Gtr II
| S S S S S S S S S S S S S S S S   S S S S S S S S
|---------------------------------|-----------------|
|---------------------------------|-----------------|
|---------------------------------|-----------------|
|---------------------------------|-----------------|
|---------------------------------|-----------------|
|-4-2-1-1-1-1-4-2-1-1-1-1-4-2-1-1-|-1-1-4-2-1-1-1-1-|


  Eb5
 4/4
  S S S  S S S S S S S S S S S S S   S S S S S S S S S S S S S S S S
|----------------------------------|----------------------------------||
|----------------------------------|----------------------------------||
|----------------------------------|----------------------------------||
|----------------------------------|----------------------------------||
|-----3h=6-2h5-----2h5-1h4-----1h4-|-----3h6-2h5-----2h5-1h4-----1h4--||
|-1h4----------1h4---------1h4-----|-1h4---------1h4---------1h4------||
|
| PM
| E   H..                            S S S S S S S S S S S S S S S S
|----------------------------------|----------------------------------||
|----------------------------------|----------------------------------||
|----------------------------------|----------------------------------||
|----------------------------------|----------------------------------||
|-1--------------------------------|-----6h9-5h8-----5h8-4h7-----4h7--||
|-1--------------------------------|-1h4---------1h4---------1h4------||


 "How could you think.."
  Slower Q=128
  N.C.
  Gtrs I, II
  TPTPTPTPTPTPTPTP  TPTPTPTPTPTPTPTP  TPTPTPTPTPTPTPTP  TPTPTPTPTPTPTPTP
  E E E E E E E E   E E E E E E E E   E E E E E E E E   E E E E E E E E
|-----------------|-----------------|-----------------|------------------|
|-----------------|-----------------|-----------------|------------------|
|-----------------|-----------------|-----------------|------------------|
|-----------------|-----------------|-----------------|------------------|
|---4-3---3-2---2-|---4-3---3-2---2-|---4-3---3-2---2-|---4-3---3-2---2--|
|-1-----1-----1---|-1-----1-----1---|-1-----1-----1---|-1-----1-----1----|


    Gtr I
    S S S S S S S S S S S S S S S S   S S S S S S S S S S S S S S S S
||----------------------------------|----------------------------------||
||o---------------------------------|---------------------------------o||
||----------------------------------|----------------------------------||
||----------------------------------|----------------------------------||
||o-----3h6-2h5-----2h5-1h4-----1h4-|-----3h6-2h5-----2h5-1h4-----1h4-o||
||--1h4---------1h4---------1h4-----|-1h4---------1h4---------1h4------||
|
|   Gtr II
|   S S S S S S S S S S S S S S S S   S S S S S S S S S S S S S S S S
||----------------------------------|----------------------------------||
||o---------------------------------|---------------------------------o||
||----------------------------------|----------------------------------||
||----------------------------------|----------------------------------||
||o-----6h9-5h8-----5h8-4h7-----4h7-|-----6h9-5h8-----5h8-4h7-----4h7-o||
||--1h4---------1h4---------1h4-----|-1h4---------1h4---------1h4------||


   "But still curses crumble.."
    F#5   N.C.  F5      N.C.  E5
    Gtrs I, II
    PM--|       PM--|         PM-----------
    S S E Q  Q  S S E   Q  Q  S S E S S E
||--------------------|-------------------|
||o-------------------|-------------------|
||--------6--5--------|-5--4--------------|
||--------x--x--------|-x--x--------------|
||o-4-4-4-4--3--3-3-3-|-3--2--2-2-2-2-2-2-|
||--4-4-4-------3-3-3-|-------2-2-2-2-2-2-|


  F#5   N.C.  F5      N.C.  E5
 -----|       PM--|         PM--------|
  S S E Q  Q  S S E   Q  Q  S S E S S E
|-------------------|----------------------||
|-------------------|---------------------o||
|-------6--5--------|-5--4-----------------||
|-------x--x--------|-x--x-----------------||
|-4-4-4-4--3--3-3-3-|-3--2--2-2-2-2-2-2---o||
|-4-4-4-------3-3-3-|-------2-2-2-2-2-2----||


   Noisy Part
    Fb5 Eb5 Fb5 Eb5 N.C.      Fb5 Eb5 Fb5 Eb5 N.C.
    PM------------|           PM------------|
    S E E S S E E S S S S S   S E E S S E E S S S S S
||--------------------------|--------------------------||
||o-------------------------|-------------------------o||
||--------------------------|--------------------------||
||--------------------------|--------------------------||
||o-2-2-1-1-2-2-1-1---------|-2-2-1-1-2-2-1-1---------o||
||--3-3-2-2-3-3-2-2-2h4p2p1-|-3-3-2-2-3-3-2-2-2h4p2p1--||


 Breakdown
  Slower Q=116          Even Slower Q=110
  Ebb5
 5/4                   4/4
  PM-------|            PM----------------------------------|
  S E E. E E H    E     E. E. E E. E. S S   E. E. E E. E. S S
|-------------------||--------------------|---------------------||
|-------------------||o-------------------|--------------------o||
|-------------------||--------------------|---------------------||
|-------------------||--------------------|---------------------||
|-0-0-0--0-0--------||o-0--0--0-0--0--0-0-|-0--0--0-0--0--0-0--o||
|-1-1-1--1-1--------||--1--1--1-1--1--1-1-|-1--1--1-1--1--1-1---||


  PM-------------------------------------
  E. E. E E. E. S S   E. E. E E. E. S S
|-------------------|-------------------|
|-------------------|-------------------|
|-------------------|-------------------|
|-------------------|-------------------|
|-0--0--0-0--0--0-0-|-0--0--0-0--0--0-0-|
|-1--1--1-1--1--1-1-|-1--1--1-1--1--1-1-|


 -------------------------------------------|
  E. E. E E. E. S S   E. E. E S S S S S S S S
|-------------------|--------------------------||
|-------------------|--------------------------||
|-------------------|--------------------------||
|-------------------|--------------------------||
|-0--0--0-0--0--0-0-|-0--0--0-0-0-0-0-0-0-0-0--||
|-1--1--1-1--1--1-1-|-1--1--1-1-1-1-1-1-1-1-1--||


 Bridge
  Faster Q=128
  N.C.
  TPTPTPTPTPTPTPTP  TPTPTPTPTPTPTPTP  TPTPTPTPTPTPTPTP  TPTPTPTPTPTPTPTP
  E E E E E E E E   E E E E E E E E   E E E E E E E E   E E E E E E E E
|-----------------|-----------------|-----------------|------------------||
|-----------------|-----------------|-----------------|------------------||
|-----------------|-----------------|-----------------|------------------||
|-----------------|-----------------|-----------------|------------------||
|-----3-6-----2-5-|-----3-6-----2-5-|-----3-6-----2-5-|-----3-6-----2-5--||
|-2-5-----1-4-----|-2-5-----1-4-----|-2-5-----1-4-----|-2-5-----1-4------||


   Outro
    N.C.
    Gtr I
    S S S S S S S S S S S S S S S S
||----------------------------------|
||o---------------------------------|
||----------------------------------|
||----------------------------------|
||o-----3h6-----2h5-----3h6-----2h5-|
||--2h5-----1h4-----2h5-----1h4-----|
|
|   Gtr II
|   S S S S S S S S S S S S S S S S
||----------------------------------|
||o---------------------------------|
||----------------------------------|
||----------------------------------|
||o-----3h6-----2h5-----3h6-----2h5-|
||--2h5-----1h4-----2h5-----1h4-----|


                  Eb5   N.C.            D5
                  PM--|                 PM
  S S S S S S S S E E E  S      +S   4x E H..
|------------------------------------||----------*|
|-----------------------------------o||----------*|
|-----------------------[3]b3.5r(3)--||----------*|
|------------------------------------||----------*|
|-----3h6-----2h5-1-1-1-------------o||-0--------*|
|-2h5-----1h4-----1-1-1--------------||-0--------*|
|
|                 PM--|                 PM
| S S S S S S S S E E E  S      +S   4x E H..
|------------------------------------||----------*|
|-----------------------------------o||----------*|
|------------------------------------||----------*|
|-----------------------[5]b5.5r(5)--||----------*|
|-----3h6-----2h5-1-1-1-------------o||-0--------*|
|-2h5-----1h4-----1-1-1--------------||-0--------*|



Duration Legend
---------------
W - whole; H - half; Q - quarter; E - 8th; S - 16th; T - 32nd; X - 64th; a - acciaccatura
+ - note tied to previous; . - note dotted; .. - note double dotted
Uncapitalized letters represent notes that are staccato (1/2 duration)
Irregular groupings are notated above the duration line
Duration letters will always appear directly above the note/fret number it represents the
duration for.  Duration letters with no fret number below them represent rests.  Multi-
bar rests are notated in the form Wxn, where n is the number of bars to rest for.  Low
melody durations appear below the staff

Tablature Legend
----------------
 h   - hammer-on
 p   - pull-off
 b   - bend
 pb  - pre-bend
 r   - bend release (if no number after the r, then release immediately)
 /\  - slide into or out of (from/to "nowhere")
 s   - legato slide
 S   - shift slide
 - natural harmonic
[n]  - artificial harmonic
n(n) - tapped harmonic
 ~   - vibrato
 tr  - trill
 T   - tap
 TP  - trem. picking
 PM  - palm muting
\n/  - tremolo bar dip; n = amount to dip
 \n  - tremolo bar down
 n/  - tremolo bar up
/n\  - tremolo bar inverted dip
 =   - hold bend; also acts as connecting device for hammers/pulls
 <> - volume swell (louder/softer)
 x   - on rhythm slash represents muted slash
 o   - on rhythm slash represents single note slash

Misc Legend
-----------
 |  - bar
||  - double bar
||o - repeat start
o|| - repeat end
*|  - double bar (ending)
 :  - bar (freetime)
 $  - Segno
 &  - Coda
Tempo markers -  = BPM(8/16=s8/s16), where s8 = swing 8ths, s16 = swing 16ths


** Generated using Power Tab Editor by Brad Larsen: The Official Power Tab Web Site






#----------------------------------PLEASE NOTE---------------------------------#
#This file is the author's own work and represents their interpretation of the #
#song. You may only use this file for private study, scholarship, or research. #
#------------------------------------------------------------------------------#

BLUDGEONED TO DEATH (DEMO VERSION)
As recorded by Suicide Silence
(From the 2005 Album DEMO)

Transcribed by jonathanonfire
	

Words and Music by Suicide Silence

Gtr I (A E A D Gb B) - 'Left Channel'
Gtr II (A E A D Gb B) - 'Right Channel'

 Family Guy Sample
  Deathcore Q=132
  N.C.              D5        N.C.
 4/4
  Gtr I
                    PM------|
                      |-3-|
  Wx3          H    E S S S E  S      +S
|------------|----------------------------||
|------------|----------------------------||
|------------|----------------[3]b3.5r(3)-||
|------------|----------------------------||
|------------|------0-0-0-0-0-------------||
|------------|------0-0-0-0-0-------------||
|
| Gtr II
|                   PM------|
|                     |-3-|
| Wx3          H    E S S S E  S      +S
|------------|----------------------------||
|------------|----------------------------||
|------------|----------------------------||
|------------|----------------[5]b5.5r(5)-||
|------------|------0-0-0-0-0-------------||
|------------|------0-0-0-0-0-------------||


   "You're worthless.."
    Eb5                                               N.C.
    Gtrs I, II
    PM----------------------------------------------| TPTPTPTP
    |-3-|   |-3-|   |-3-|   |-3-|     |-3-|   |-3-|
    S S S E S S S E S S S E S S S E   S S S E S S S E E E E E  4x
||----------------------------------|--------------------------||
||o---------------------------------|-------------------------o||
||----------------------------------|--------------------------||
||----------------------------------|--------------------------||
||o-1-1-1-1-1-1-1-1-1-1-1-1-1-1-1-1-|-1-1-1-1-1-1-1-1---4---3-o||
||--1-1-1-1-1-1-1-1-1-1-1-1-1-1-1-1-|-1-1-1-1-1-1-1-1-1---1----||


                                                                  Slower Q=116
  D5        N.C.        D5        N.C.                            Fb5  Eb5
  Gtr I
  PM------|             PM------|               TPTPTPTPTPTPTPTP  PM---|
  |-3-|                 |-3-|
  S S S E E  S      +S  S S S E E  S      +S    E E E E E E E E   H    H
|---------------------------------------------|-----------------|-----------||
|---------------------------------------------|-----------------|-----------||
|-----------[3]b3.5r(3)-----------[3]b3.5r(3)-|-----------------|-----------||
|---------------------------------------------|-----------------|-----------||
|-1-1-1-1-1-------------1-1-1-1-1-------------|-------3-------2-|-2----1----||
|-1-1-1-1-1-------------1-1-1-1-1-------------|-2-5-2---1-4-1---|-3----2----||
|
| Gtr II
| PM------|             PM------|                                 PM---|
| |-3-|                 |-3-|
| S S S E E  S      +S  S S S E E  S      +S    W                 H    H
|---------------------------------------------|-----------------|-----------||
|---------------------------------------------|-----------------|-----------||
|---------------------------------------------|-----------------|-----------||
|-----------[5]b5.5r(5)-----------[5]b5.5r(5)-|-----------------|-----------||
|-1-1-1-1-1-------------1-1-1-1-1-------------|-----------------|-2----1----||
|-1-1-1-1-1-------------1-1-1-1-1-------------|-----------------|-3----2----||


 "Your curses with.."
  N.C.                      E5G5EbF#5 N.C.                      E5G5EbF#5
  Gtrs I, II
  TPTPTPTPTPTPTPTP  TPTPTPTPPM----|   TPTPTPTPTPTPTPTP  TPTPTPTPPM----|
  E E E E E E E E   E E E E E E E E   E E E E E E E E   E E E E E E E E
|-----------------|-----------------|-----------------|------------------|
|-----------------|-----------------|-----------------|------------------|
|-----------------|-----------------|-----------------|------------------|
|-----------------|-----------------|-----------------|------------------|
|-------3-------2-|-------3-2-5-1-4-|-------3-------2-|-------3-2-5-1-4--|
|-2-5-2---1-4-1---|-2-5-2---2-5-1-4-|-2-5-2---1-4-1---|-2-5-2---2-5-1-4--|


  N.C.
  TPTPTPTPTPTPTPTP  TPTPTPTPTPTPTPTP
  E E E E E E E E   E E E E E E E E
|-----------------|-----------------|
|-----------------|-----------------|
|-----------------|-----------------|
|-----------------|-----------------|
|-------3-------2-|-------3-------2-|
|-2-5-2---1-4-1---|-2-5-2---1-4-1---|


  E5G5E5N.C.        EbF#EbN.C.          E5G5E5N.C.        E5G5EbF#5 N.C.
  PM--|             PM--|               PM--|             PM----|
  E E E  S      +S  E E E  S      +S    E E E  S      +S  E E E E   W
|-------------------------------------|---------------------------|------||
|-------------------------------------|---------------------------|------||
|-------------------------------------|---------------------------|------||
|-------[5]b5.5r(5)-------------------|-------[5]b5.5r(5)---------|------||
|-2-5-2-------------1-4-1-[4]b4.5r(4)-|-2-5-2-------------2-5-1-4-|------||
|-2-5-2-------------1-4-1-------------|-2-5-2-------------2-5-1-4-|------||


 Breakdown
  Ebb5
  PM-------------------------------------------|
  H    H      H    H      H    H      H    E E Q
|-----------|-----------|-----------|--------------|
|-----------|-----------|-----------|--------------|
|-----------|-----------|-----------|--------------|
|-----------|-----------|-----------|--------------|
|-0----0----|-0----0----|-0----0----|-0----0-0-0---|
|-1----1----|-1----1----|-1----1----|-1----1-1-1---|


                               D5/Ebb5 D5/AEbb5
  Gtr I
  PM------------------------------------------------|
  H    H      H    E E Q    H     H        H    E E Q
|-----------|-------------|--------------|--------------|
|-----------|-------------|--------------|--------------|
|-----------|-------------|--------------|--------------|
|-----------|-------------|--------------|--------------|
|-0----0----|-0----0-0-0--|-0-----0------|-0----0-0-0---|
|-1----1----|-1----1-1-1--|-1-----1------|-1----1-1-1---|
|
| Gtr II
| PM------------------------|     PM       PM-------|
| H    H      H    E E Q    Q  Q  Q.   E   H    E E Q
|-----------|-------------|--------------|--------------|
|-----------|-------------|--------------|--------------|
|-----------|-------------|--------------|--------------|
|-----------|-------------|----0-------0-|--------------|
|-0----0----|-0----0-0-0--|-0--0--0----0-|-0----0-0-0---|
|-1----1----|-1----1-1-1--|-1-----1------|-1----1-1-1---|


  Gtrs I, II
  PM-------------------------------------------|
  H    H      H    H      H    H      H    E E Q
|-----------|-----------|-----------|--------------|
|-----------|-----------|-----------|--------------|
|-----------|-----------|-----------|--------------|
|-----------|-----------|-----------|--------------|
|-0----0----|-0----0----|-0----0----|-0----0-0-0---|
|-1----1----|-1----1----|-1----1----|-1----1-1-1---|


  PM---------------------------------------------|
  H    H      H    E E Q    H    H      H    E E Q
|-----------|-------------|-----------|--------------|
|-----------|-------------|-----------|--------------|
|-----------|-------------|-----------|--------------|
|-----------|-------------|-----------|--------------|
|-0----0----|-0----0-0-0--|-0----0----|-0----0-0-0---|
|-1----1----|-1----1-1-1--|-1----1----|-1----1-1-1---|


  PM-------------------|
  H    H      H    E E Q
|-----------|-------------||
|-----------|-------------||
|-----------|-------------||
|-----------|-------------||
|-0----0----|-0----0-0-0--||
|-1----1----|-1----1-1-1--||


 Bridge
  Original Tempo Q=132
  N.C.
                                   2/4
  Gtr I
  S S S S S S S S S S S S S S S S   S S S S S S S S
|---------------------------------|-----------------|
|---------------------------------|-----------------|
|---------------------------------|-----------------|
|---------------------------------|-----------------|
|---------------------------------|-----------------|
|-4-2-1-1-1-1-4-2-1-1-1-1-4-2-1-1-|-1-1-4-2-1-1-1-1-|
|
| Gtr II
| S S S S S S S S S S S S S S S S   S S S S S S S S
|---------------------------------|-----------------|
|---------------------------------|-----------------|
|---------------------------------|-----------------|
|---------------------------------|-----------------|
|---------------------------------|-----------------|
|-4-2-1-1-1-1-4-2-1-1-1-1-4-2-1-1-|-1-1-4-2-1-1-1-1-|


  Slightly Faster Q=135
  Eb5
 4/4
  S S S  S S S S S S S S S S S S S   S S S S S S S S S S S S S S S S
|----------------------------------|----------------------------------||
|----------------------------------|----------------------------------||
|----------------------------------|----------------------------------||
|----------------------------------|----------------------------------||
|-----3h=6-2h5-----2h5-1h4-----1h4-|-----3h6-2h5-----2h5-1h4-----1h4--||
|-1h4----------1h4---------1h4-----|-1h4---------1h4---------1h4------||
|
| PM
| E   H..                            S S S S S S S S S S S S S S S S
|----------------------------------|----------------------------------||
|----------------------------------|----------------------------------||
|----------------------------------|----------------------------------||
|----------------------------------|----------------------------------||
|-1--------------------------------|-----6h9-5h8-----5h8-4h7-----4h7--||
|-1--------------------------------|-1h4---------1h4---------1h4------||


 "How could you think.."
  N.C.
  Gtrs I, II
  TPTPTPTPTPTPTPTP  TPTPTPTPTPTPTPTP  TPTPTPTPTPTPTPTP  TPTPTPTPTPTPTPTP
  E E E E E E E E   E E E E E E E E   E E E E E E E E   E E E E E E E E
|-----------------|-----------------|-----------------|------------------|
|-----------------|-----------------|-----------------|------------------|
|-----------------|-----------------|-----------------|------------------|
|-----------------|-----------------|-----------------|------------------|
|---4-3---3-2---2-|---4-3---3-2---2-|---4-3---3-2---2-|---4-3---3-2---2--|
|-1-----1-----1---|-1-----1-----1---|-1-----1-----1---|-1-----1-----1----|


  Gtr I
  TPTPTPTPTPTPTPTP  TPTPTPTPTPTPTPTP  TPTPTPTPTPTPTPTP  TPTPTPTPTPTPTPTP
  E E E E E E E E   E E E E E E E E   E E E E E E E E   E E E E E E E E
|-----------------|-----------------|-----------------|------------------||
|-----------------|-----------------|-----------------|------------------||
|-----------------|-----------------|-----------------|------------------||
|-----------------|-----------------|-----------------|------------------||
|---4-3---3-2---2-|---4-3---3-2---2-|---4-3---3-2---2-|---4-3---3-2---2--||
|-1-----1-----1---|-1-----1-----1---|-1-----1-----1---|-1-----1-----1----||
|
| Gtr II
| TPTPTPTPTPTPTPTP  TPTPTPTPTPTPTPTP  TPTPTPTPTPTPTPTP  TPTPTPTPTPTPTPTP
| E E E E E E E E   E E E E E E E E   E E E E E E E E   E E E E E E E E
|-----------------|-----------------|-----------------|------------------||
|-----------------|-----------------|-----------------|------------------||
|-----------------|-----------------|-----------------|------------------||
|-----------------|-----------------|-----------------|------------------||
|---8-7---7-6---6-|---8-7---7-6---6-|---8-7---7-6---6-|---8-7---7-6---6--||
|-1-----1-----1---|-1-----1-----1---|-1-----1-----1---|-1-----1-----1----||


 "But still curses crumble.."
  F#5   N.C.  F5      N.C.  E5
  Gtrs I, II
  PM--|       PM--|         PM-----------
  S S E Q  Q  S S E   Q  Q  S S E S S E
|-------------------|-------------------|
|-------------------|-------------------|
|-------6--5--------|-5--4--------------|
|-------x--x--------|-x--x--------------|
|-4-4-4-4--3--3-3-3-|-3--2--2-2-2-2-2-2-|
|-4-4-4-------3-3-3-|-------2-2-2-2-2-2-|


  F#5   N.C.      F5  N.C.      E5
 -----|       PM--|         PM--------|
  S S E Q  Q  S S E   Q  Q  S S E S S E
|-------------------|-------------------|
|-------------------|-------------------|
|-------6--5--------|-5--4--------------|
|-------x--x--------|-x--x--------------|
|-4-4-4-4--3--3-3-3-|-3--2--2-2-2-2-2-2-|
|-4-4-4-------3-3-3-|-------2-2-2-2-2-2-|


  F5    N.C.      E5  N.C.        Eb5
  Gtr I
  PM--|       PM--|           PM-----------
  S S E Q  Q  S S E   Q   Q   S S E S S E
|-------------------|---------------------|
|-------------------|---------------------|
|-------6--5--------|-5---4---------------|
|-------x--x--------|-x---x---------------|
|-4-4-4-4--3--3-3-3-|-3---2---2-2-2-2-2-2-|
|-4-4-4-------3-3-3-|---------2-2-2-2-2-2-|
|
| Gtr II
| PM--|       PM--|           PM-----------
| S S E Q  Q  S S E   Q   Q   S S E S S E
|-------------------|---------------------|
|-------------------|---------------------|
|-------------------|---------------------|
|-------7--6--------|-6--[5]--------------|
|-4-4-4-------3-3-3-|---------2-2-2-2-2-2-|
|-4-4-4-------3-3-3-|---------2-2-2-2-2-2-|


  F5    N.C.      E5  N.C.            Eb5
 -----|       PM--|                   PM--------|
  S S E Q  Q  S S E   Q       Q       S S E S S E
|-------------------|--------------------------------||
|-------------------|--------------------------------||
|-------6--5--------|-5-------4----------------------||
|-------x--x--------|-x-------x----------------------||
|-4-4-4-4--3--3-3-3-|-3-------2-------2-2-2-2-2-2----||
|-4-4-4-------3-3-3-|-----------------2-2-2-2-2-2----||
|
|-----|       PM--|                   PM--------|
| S S E Q  Q  S S E   S S S S S S S S S S E S S E
|-------------------|--------------------------------||
|-------------------|--------------------------------||
|-------------------|--------------------------------||
|-------7--6--------|--------------------------------||
|-4-4-4-------3-3-3-|-----------------2-2-2-2-2-2----||
|-4-4-4-------3-3-3-|-6h9p6p0-5h8p5p0-2-2-2-2-2-2----||


   Noisy Part
                                                             Slower Q=114
    FbEb5   FbN.C.            FbEb5   FbN.C.              Ebb5
    Gtrs I, II
    PM------|                 PM------|                   PM------|
    E S E E E S S S S S S S   E S E E E S S S S S S S     E. E. E E Q.
||--------------------------|--------------------------||----------------||
||o-------------------------|-------------------------o||----------------||
||--------------------------|--------------------------||----------------||
||--------------------------|--------------------------||----------------||
||o-2-1-1-1-2---------------|-2-1-1-1-2---------------o||-0--0--0-0------||
||--3-2-2-2-3-1-1-1-2h4p2p1-|-3-2-2-2-3-1-1-1-2h4p2p1--||-1--1--1-1------||


   Breakdown
    Ebb5
    PM------------------------------------------------------------------|
    E. E. E E. E. E   E. E. E E. E. E   E. E. E E. E. E   E. E. E E. E. E
||------------------|-----------------|-----------------|------------------||
||o-----------------|-----------------|-----------------|-----------------o||
||------------------|-----------------|-----------------|------------------||
||------------------|-----------------|-----------------|------------------||
||o-0--0--0-0--0--0-|-0--0--0-0--0--0-|-0--0--0-0--0--0-|-0--0--0-0--0--0-o||
||--1--1--1-1--1--1-|-1--1--1-1--1--1-|-1--1--1-1--1--1-|-1--1--1-1--1--1--||


 Bridge
  Original Tempo Q=132
  N.C.
  Gtr I
  TPTPTPTPTPTPTPTP  TPTPTPTPTPTPTPTP  TPTPTPTPTPTPTPTP  TPTPTPTPTPTPTPTP
  E E E E E E E E   E E E E E E E E   E E E E E E E E   E E E E E E E E
|-----------------|-----------------|-----------------|------------------||
|-----------------|-----------------|-----------------|------------------||
|-----------------|-----------------|-----------------|------------------||
|-----------------|-----------------|-----------------|------------------||
|-----3-6-----2-5-|-----3-6-----2-5-|-----3-6-----2-5-|-----3-6-----2-5--||
|-2-5-----1-4-----|-2-5-----1-4-----|-2-5-----1-4-----|-2-5-----1-4------||
|
| Gtr II
| TPTPTPTPTPTPTPTP  TPTPTPTPTPTPTPTP  TPTPTPTPTPTPTPTP  TPTPTPTPTPTPTPTP
| E E E E E E E E   E E E E E E E E   E E E E E E E E   E E E E E E E E
|-----------------|-----------------|-----------------|------------------||
|-----------------|-----------------|-----------------|------------------||
|-----------------|-----------------|-----------------|------------------||
|-----------------|-----3-6-----2-5-|-----------------|------------------||
|-----3-6-----2-5-|-----------------|-----3-6-----2-5-|-----3-6-----2-5--||
|-2-5-----1-4-----|-2-5-----1-4-----|-2-5-----1-4-----|-2-5-----1-4------||


   Outro
    N.C.                                              D5    N.C.
                                                      PM--|
    S S S S S S S S S S S S S S S S   S S S S S S S S E E E  S      +S   4x
||----------------------------------|------------------------------------||
||o---------------------------------|-----------------------------------o||
||----------------------------------|-----------------------[3]b3.5r(3)--||
||----------------------------------|------------------------------------||
||o-----3h6-----2h5-----3h6-----2h5-|-----3h6-----2h5-1-1-1-------------o||
||--2h5-----1h4-----2h5-----1h4-----|-2h5-----1h4-----1-1-1--------------||
|
|                                                     PM--|
|   S S S S S S S S S S S S S S S S   S S S S S S S S E E E  S      +S   4x
||----------------------------------|------------------------------------||
||o---------------------------------|-----------------------------------o||
||----------------------------------|------------------------------------||
||----------------------------------|-----------------------[5]b5.5r(5)--||
||o-----3h6-----2h5-----3h6-----2h5-|-----3h6-----2h5-1-1-1-------------o||
||--2h5-----1h4-----2h5-----1h4-----|-2h5-----1h4-----1-1-1--------------||


  Eb5
  Gtrs I, II
  PM
  E H..         W
|-------------|------*|
|-------------|------*|
|-------------|------*|
|-------------|------*|
|-1-----------|------*|
|-1-----------|------*|



Duration Legend
---------------
W - whole; H - half; Q - quarter; E - 8th; S - 16th; T - 32nd; X - 64th; a - acciaccatura
+ - note tied to previous; . - note dotted; .. - note double dotted
Uncapitalized letters represent notes that are staccato (1/2 duration)
Irregular groupings are notated above the duration line
Duration letters will always appear directly above the note/fret number it represents the
duration for.  Duration letters with no fret number below them represent rests.  Multi-
bar rests are notated in the form Wxn, where n is the number of bars to rest for.  Low
melody durations appear below the staff

Tablature Legend
----------------
 h   - hammer-on
 p   - pull-off
 b   - bend
 pb  - pre-bend
 r   - bend release (if no number after the r, then release immediately)
 /\  - slide into or out of (from/to "nowhere")
 s   - legato slide
 S   - shift slide
 - natural harmonic
[n]  - artificial harmonic
n(n) - tapped harmonic
 ~   - vibrato
 tr  - trill
 T   - tap
 TP  - trem. picking
 PM  - palm muting
\n/  - tremolo bar dip; n = amount to dip
 \n  - tremolo bar down
 n/  - tremolo bar up
/n\  - tremolo bar inverted dip
 =   - hold bend; also acts as connecting device for hammers/pulls
 <> - volume swell (louder/softer)
 x   - on rhythm slash represents muted slash
 o   - on rhythm slash represents single note slash

Misc Legend
-----------
 |  - bar
||  - double bar
||o - repeat start
o|| - repeat end
*|  - double bar (ending)
 :  - bar (freetime)
 $  - Segno
 &  - Coda
Tempo markers -  = BPM(8/16=s8/s16), where s8 = swing 8ths, s16 = swing 16ths


** Generated using Power Tab Editor by Brad Larsen: The Official Power Tab Web Site

comments
print report bad tab
10 comments total. Showing first comments.
0 reply
TheHardcoreKid wrote on August 29 2008, 05:57 am

This song is actually in AEADGBE because they play seven strings. It would be a little ridiculous if they tuned 6 of their strings up a half step.

0 reply
jonathanonfire wrote on August 29 2008, 07:48 pm

are you kidding? everyone knows they play with 7 strings in A... but who actually owns a 7 string? most people dont, including me. you're gave me a rating of 1 just because of that? what a douche!

-2 reply
TheHardcoreKid wrote on August 30 2008, 12:03 am

no i gave you a one star rating because it was still in the wrong ****ing tuning. i tune my guitar to AEADGB like any other person with a 6 string guitar and a brain. not a half step from that because its not what they play in. you were ****ing wrong so you deserved a one star. next time actually figure out what they play in and try.

I want to post or [tab]
guest
You may want to rate the tab now too:
select rating
Please do not post tabs as comments. Select "correction" instead!