Oops, an error
Loading. Please wait.

Bludgeoned To Death Bass Tab

version 2
version 2

Whole song

Interactive

2,757 views 3 this week
no commentswrite comment
1 2 3 4 5
please rate
add to favorites
launch autoscroll
font size
0
reset
guitar tuner
Tab Pro tools
  • play this tab
  • loop segment
  • change instrument
  • show fretboard
  • metronome
×
Best way to learn
"Bludgeoned To Death"
Autoscroll
slow
fast
+/-
esc
set tempo
stop
Contributor
Difficulty
Tuning
advanced
A E A D F# B
+++++++++++++++++++++++++++++++++++++
|Suicide Silence-Bludgeoned To Death|
+++++++++++++++++++++++++++++++++++++

ok, this is not my work, this is the guitar pro version
of the bass tab,the other bass tab that was posted for 
this song wasn't very good so I'm basically posting a 
huge correction,but the guitar pro version 
bass tab is perfect so enjoy!

Bludgeoned To Death

Lenghth: 2:36

Tuning:Drop A
(5 string AEADG)
(4 string AEAD)

Tab Legend
| x=mute(even though you do mute alot this is in 
certain areas)
| ~=let ring
| \=slide down
| /=slide up
| p=pull off
| h=hammer on

Tabbed on a 4 string
D|-----------|---------------------------------|
A|-----------|---------------------------------|
E|---------2-|---------------------------4---3-|
A|-0-4p2p1---|-221-221-221-221-221-221-1---1---|

|---------------------------------|---------------------------------|
|---------------------------------|---------------------------------|
|---------------------------4---3-|---------------------------4---3-|
|-221-221-221-221-221-221-1---1---|-221-221-221-221-221-221-1---1---|
                                                        
                                                       "BLUDGEONED"
|---------------------------------|-------------------------------|
|---------------------------------|-------------------------------|
|---------------------------4---3-|-------------------------------|
|-221-221-221-221-221-221-1---1---|-4444-1-4444-1-1x----3~---2~---|

|---------------------------------|---------------------------------|
|---------------------------------|---------------------------------|
|-------3-------2-------3---------|-------3-------2-------3---------|
|-2-5-2---1-4-1---2-5-2---2-5-1-4-|-2-5-2---1-4-1---2-5-2---2-5-1-4-|

|---------------------------------|---------------------------------|
|---------------------------------|---------------------------------|
|-------3-------2-------3-------2-|-------3-------2-------3---------|
|-2-5-2---1-4-1---2-5-2---1-4-1---|-2-5-2---1-4-1---2-5-2---2-5-1-2-|

"And the doctors won't be able to regonize your f---ing...face!!!"
|---------------------|
|---------------------|
|---------------------|
|---------------------|

|---------------------|
|---------------------|
|---------------------|
|-1~---1~---1~---1~---|

|-----------------------|-----------------------|
|-----------------------|-----------------------|
|-----------------------|-----------------------|
|-1~---1~---1~---1-1-1--|-1~---1~---1~---1-1-1--|

|-----------------------|-----------------------|
|-----------------------|-----------------------|
|-----------------------|-----------------------|
|-1~---1~---1~---1-1-1--|-1~---1~---1~---1-1-1--|

|
|
|
|----the next part is very hard to tab out...i'm sorry..
just listen to it...it's really fast and it's a whole bunch
of notes on the low A on the 4th fret going down to the 1st fret
on the low A so just listen and remember that it's really fast 
4s down to 1s...this is a part where mitch dosen't scream if you
don't know what part i'm talking about

The next part after the part above
|----------------------------------|-----------------|
|----------------------------------|-----------------|
|--------------------4-3---3-2---2-|---4-3---3-2---2-|
|-1x----1x----19\--5-----3-----2---|-5-----3-----2---|

|-----------------|-----------------|
|-----------------|-----------------|
|---4-3---3-2---2-|---4-3---3-2---2-|
|-5-----3-----2---|-5-----3-----2---|

|-----------------|-----------------|
|-----------------|-----------------|
|---4-3---3-2---2-|---4-3---3-2---2-|
|-5-----3-----2---|-5-----3-----2---|

|-----------------|-----------------|
|-----------------|-----------------|
|---4-3---3-2---2-|---4-3---3-2---2-|
|-5-----3-----2---|-5-----3-----2---|

|-------------------------|-------------------------|
|-------------------------|-------------------------|
|-----4-3-----3-2---------|-----4-3-----3-2---------|
|-555-----333-----222-222-|-555-----333-----222-222-|

|-------------------------|-------------------------|
|-------------------------|-------------------------|
|-----4-3-----3-2---------|-----4-3-----3-2---------|
|-555-----333-----222-222-|-555-----333-----222-222-|

|----------------------------|-----------------------------|
|----------------------------|-----------------------------|
|----------------------------|-----------------------------|
|-5-1-2--5-0-1-2-1--5-1-2-1--|--5-1-2--5-0-1-2-1--5-1-2-1--|

|----------------------------|-----------------------------|
|----------------------------|-----------------------------|
|----------------------------|-----------------------------|
|-5-1-2--5-0-1-2-1--5-1-2-1--|--5-1-2--5-0-1-2-1--5-1-2-1--|

|----------|---------------------------------------------------------
|----------|---------------------------------------------------------
|----------|---------------------------------------------------------
|-1-1-1-1x-|-1-1-1-1-1-111-1-1-1-1-1-111-1-1-1-1-1-111-1-1-1-1-1-111-

---------------------------------------------------------|
---------------------------------------------------------|
---------------------------------------------------------|
-1-1-1-1-1-111-1-1-1-1-1-111-1-1-1-1-1-111-1-1-1-1-1-111-|

|-----------------|-----------------|-----------------|-----------------|
|-----------------|-----------------|-----------------|-----------------|
|-----3-6-----2-5-|-----3-6-----2-5-|-----3-6-----2-5-|-----3-6-----2-5-|
|-2-5-----1-4-----|-2-5-----1-4-----|-2-5-----1-4-----|-2-5-----1-4-----|

Very fast 
|-----------------------------------------------------------|
|-----------------------------------------------------------|
|-----3-6-----2-5-----3-6-----2-5-----3-6-----2-5---------2-|
|-2-5-----1-4-----2-5-----1-4-----2-5-----1-4-----0-4p2p1---|

|-----------------------------------------------------------|
|-----------------------------------------------------------|
|-----3-6-----2-5-----3-6-----2-5-----3-6-----2-5---------2-|
|-2-5-----1-4-----2-5-----1-4-----2-5-----1-4-----0-4p2p1---|

|-----------------------------------------------------------|
|-----------------------------------------------------------|
|-----3-6-----2-5-----3-6-----2-5-----3-6-----2-5---------2-|
|-2-5-----1-4-----2-5-----1-4-----2-5-----1-4-----0-4p2p1---|

|--------------------------------------------------------------|
|--------------------------------------------------------------|
|-----3-6-----2-5-----3-6-----2-5-----3-6-----2-5---------2----|
|-2-5-----1-4-----2-5-----1-4-----2-5-----1-4-----0-4p2p1---0x-|

That's it!Sorry about that one
part just listen!
All the credit goes to whoever tabbed the 
guitar pro version with the bass part! 

+++++++
|Enjoy|
+++++++
comments
We did not receive enough feedback on this tab! Please rate:
print report bad tab
1 2 3 4 5
I want to post or [tab]
guest
You may want to rate the tab now too:
select rating
Please do not post tabs as comments. Select "correction" instead!