Oops, an error
Loading. Please wait.

Bludgeoned To Death Tab

version 2
version 2

Whole song

Interactive

23,164 views 21 this week
15 commentsread comments
1 2 3 4 5
excellent!
x 15
add to favorites
launch autoscroll
font size
0
reset
how to read this tab
guitar tuner
Tab Pro tools
  • play this tab
  • loop segment
  • change instrument
  • show fretboard
  • metronome
Autoscroll
slow
fast
+/-
esc
set tempo
stop
Contributor
Difficulty
Tuning
intermediate
A E A D F# B
-------------------------------------------------------------------------------
                         "Bludgeoned To Death" --- Suicide Silence
-------------------------------------------------------------------------------

Tabbed by: [travis]


Tuning: 6 String Guitar === A E A D G B (low to high) 
              or
        7 String Guitar === A E A D G B E (low to high)


***The band originally plays 7 string guitar, but you really don't need
to use the 7th string, so you can tune your 6 string guitar to a
7 string tuning. Plus, you really don't use the high E string if you have 
a 7 string guitar. If you do have a 7 string guitar, then go ahead.



Legend:

... = palm mute
h = hammer on
p = pull off
* = pinch harmonic
! = tremelo pick
b = bend
.5 = half step bend
1 = whole step bend
~ = vibrato / ring


=================================
Intro:

Guitar 1:
             .5
B|--------------|
G|--------------|
D|--------------|
A|--------------|
E|----------2*b-|
A|-0-444-1------|
   .......

Guitar 2:
           .5
B|------------|
G|------------|
D|------------|
A|------------|
E|--------2*b-|
A|-0-44-1-----|
   ......

==================================
Guitars 1 and 2:
B|-----------------------------------------------------------|
G|-----------------------------------------------------------|
D|-----------------------------------------------------------|
A|-5-5--4--5-5--4--5-5--4--5-5--4--5-5--4--5-5--4------------| x4
E|-2-2--1--2-2--1--2-2--1--2-2--1--2-2--1--2-2--1----4!---3!-|
A|-2-2--1--2-2--1--2-2--1--2-2--1--2-2--1--2-2--1--1----1----|
   ..............................................

===================================
Guitars 1 and 2:
           .5         .5         .5
B|----------------------------------|
G|----------------------------------|
D|----------------------------------|
A|----------------------------------|
E|--------2*b--------2*b--------2*b-|
A|-4444-1-----4444-1-----4444-1-----|
   ......     ......     ......

===================================
Guitar 1:
B|----------------------------------------------------------------------------------------|
G|----------------------------------------------------------------------------------------|
D|----------------------------------------------------------------------------------------|
A|----------------------------------------------------------------------------------------|
E|----------3!----------2!--3*~~~~~-2~~~~~----------2!----------2!----------3!-2--5--1--4-|
A|-2!-5!-2!----1!-4!-1!-----2*~~~~~-1~~~~~-2!-5!-2!----1!-4!-1!----2!-5!-2!----2--5--1--4-|
                                                                               ..........

=====================================
Verse:

Guitars 1 and 2:
B|--------------------------------------------------------------------------|
G|--------------------------------------------------------------------------|
D|--------------------------------------------------------------------------|
A|--------------------------------------------------------------------------|
E|----------3!----------2!----------3!--2--5--1--4-----------3!----------2!-|
A|-2!-5!-2!----1!-4!-1!----2!-5!-2!-----2--5--1--4--2!-5!-2!----1!-4!-1!----|

=====================================
Guitars 1 and 2:
                                   .5        .5        .5
B|----------------------------------------------------------------|
G|----------------------------------------------------------------|
D|----------------------------------------------------------------|
A|----------------------------------------------------------------|
E|----------3!----------2!--2-5-2-3*b-1-4-1-2*b-2-5-2-3*b-2-5-1-2-|
A|-2!-5!-2!----1!-4!-1!-----2-5-2-----1-4-1-----2-5-2-----2-5-1-2-|
                            .....     .....     .....     .......

=====================================
Guitars 1 and 2:
B|---------------------------------------|
G|---------------------------------------|
D|---------------------------------------|
A|---------------------------------------|
E|-2-5-2-3*b-1-4-1-2*b-2-5-2-3*b-2-5-1-2-|
A|-2-5-2-----1-4-1-----2-5-2-----2-5-1-2-|
   .....     .....     .....     .......

=====================================
Guitars 1 and 2:
B|--------------------------------------------------|
G|--------------------------------------------------|
D|--------------------------------------------------|
A|--------------------------------------------------|
E|-0~~~~-0~~~~-0~~~~-0~~~~-0~~~~-0~~~~-0~~~~-0-0--0-|
A|-1~~~~-1~~~~-1~~~~-1~~~~-1~~~~-1~~~~-1~~~~-1-1--1-|

=====================================
Guitars 1 and 2:
B|--------------------------|
G|--------------------------|
D|--------------------------|
A|--------------------------| x3
E|-0~~~~-0~~~~-0~~~~-0-0--0-|
A|-1~~~~-1~~~~-1~~~~-1-1--1-|

=====================================
Guitars 1 and 2:
B|-------------------------------------------------|
G|-------------------------------------------------|
D|-------------------------------------------------|
A|-------------------------------------------------|
E|-------------------------------------------------|
A|-4-1-1-1-1-1-4-1-1-1-1-1-4-1-1-1-1-1-4-1-1-1-1-1-|
   ...............................................

=====================================
Guitars 1 and 2:
B|---------------------------------|
G|---------------------------------|
D|---------------------------------|
A|---------------------------------| x2
E|-----4h7-3h6-----3h6-2h5-----2h5-|
A|-5h8---------3h6---------2h5-----|

End of Verse.
======================================
Chorus:

Guitars 1 and 2:
B|-------------------------|
G|-------------------------|
D|-------------------------|
A|-------------------------| x4
E|----4!-3!----3!-2!----2!-|
A|-5!-------3!-------2!----|

=======================================
Guitars 1 and 2:
B|---------------------------------|
G|---------------------------------|
D|---------------------------------|
A|---------------------------------| x4
E|-----4h7-3h6-----3h6-2h5-----2h5-|
A|-5h8---------3h6---------2h5-----|

========================================
Guitars 1 and 2:
B|--------------------------------------------|
G|--------------------------------------------|
D|---------6--5----------5--4-----------------|
A|---------x--x----------x--x-----------------| x4
E|-5-5--5--4--3--3-3--3--3--2--2-2--2--2-2--2-|
A|-5-5--5--------3-3--3--------2-2--2--2-2--2-|
   ......        ......        ..............

=========================================
Guitars 1 and 2:
B|------------------------------|
G|------------------------------|
D|------------------------------|
A|------------------------------| x4
E|-5--1--2--5-0-1--2--1-5-2-5-2-|
A|-5--1--2--5-0-1--2--1-5-2-5-2-|
   ............................

==========================================
Guitars 1 and 2:
B|-------------------|
G|-------------------|
D|-------------------|
A|-------------------|
E|-0--0---0--0-------|
A|-1--1---1--1-------|
   ...........

===========================================
Guitars 1 and 2:
B|----------------------|
G|----------------------|
D|----------------------|
A|----------------------| x8
E|-0--0---0--0--0---0-0-|
A|-1--1---1--1--1---1-1-|

============================================
Guitars 1 and 2:
B|-------------------------------------------------|
G|-------------------------------------------------|
D|-------------------------------------------------|
A|-------------------------------------------------| x2
E|-------3!-6!-------2!-5!-------3!-6!-------2!-5!-|
A|-2!-5!-------1!-4!-------2!-5!-------1!-4!-------|

============================================
Guitars 1 and 2:
                                                          .5
B|-----------------------------------------------------------|
G|-----------------------------------------------------------|
D|-----------------------------------------------------------|
A|-----------------------------------------------------------| x3
E|-----3h6-----2h5-----3h6-----2h5-----3h6-----2h5-2-5-1-2*b-|
A|-2h5-----1h4-----2h5-----1h4-----2h5-----1h4-----2-5-1-----|
                                                   .....

============================================
Guitars 1 and 2:
                                                          .5
B|-----------------------------------------------------------------|
G|-----------------------------------------------------------------|
D|-----------------------------------------------------------------|
A|-----------------------------------------------------------------|
E|-----3h6-----2h5-----3h6-----2h5-----3h6-----2h5-2-5-1-2*b-0-----|
A|-2h5-----1h4-----2h5-----1h4-----2h5-----1h4-----2-5-1-----0-----|
                                                   .....     .

That's It.

Please Rate and Comment My Tab.
Thanks.
[travis]
comments
print report bad tab
15 comments total. Showing first comments.
+2 reply
ninjagayden777 wrote on August 25 2009, 02:55 pm

It'z good.

+1 reply
xKnifekillerx wrote on November 30 2009, 04:51 pm

This is Great : DDDD

five star.

you really should give Wake up Ago :DD
your more badass then mitch lucker is hehe. xD

+1 reply
xKnifekillerx wrote on November 30 2009, 04:56 pm

B|--------------------------------------------|
G|--------------------------------------------|
D|---------6--5----------5--4-----------------|
A|---------x--x----------x--x-----------------| x4
E|-5-5--5--4--3--3-3--3--3--2--2-2--2--2-2--2-|
A|-5-5--5--------3-3--3--------2-2--2--2-2--2-|

On the 5 bit im sure hes doing 4. try. i could be wrong though...since your the badass lol. xDD

I want to post or [tab]
guest
You may want to rate the tab now too:
select rating
Please do not post tabs as comments. Select "correction" instead!