Oops, an error
Loading. Please wait.

Bludgeoned To Death Tab

version 3
version 3

Whole song

Interactive

2,598 views 1 this week
no commentswrite comment
1 2 3 4 5
please rate
add to favorites
launch autoscroll
font size
0
reset
how to read this tab
guitar tuner
Autoscroll
slow
fast
+/-
esc
set tempo
stop
Help us to improve Ultimate-Guitar.com Take our survey!
×
Author
Difficulty
intermediate
7 string guitar tuning- drop A (low to high, A E A D G B E) 


 Intro (0:01)

                       P.H.   *repeat prev. beat             (play 4 times)
 |-------------------------|----------------------|-----------------------|
 |-------------------------|----------------------|-----------------------|
 |-------------------------|---------*/--/--/--/--|--/--/----------------.|
 |-------------------------|----------------------|-----------------------|
 |-------------------------|--5--5--4-------------|----------------------.|
 |---------------------2b--|--2--2--1-------------|---------------4------3|
 |----0---4--4--4--1-------|--2--2--1-------------|-----------1-------1---|
  P.M[--------------]     P.M[-------]
                                                           Gtr. 1
 gtr. 1&2         P.H.                   P.H      [trem pick--------------]
 |------------------------------------------------|------------------------|
 |------------------------------------------------|------------------------|
 |------------------------------------------------|------------------------|
 |------------------------------------------------|------------------------|
 |------------------------------------------------|------------------------|
 |-----------------2b--------------------2b-------|-----------3----------2-|
 |--4--4--4--4--1----------4--4--4--4--1----------|-2--5--2------1--4--1---|
 P.M[------------]    P.M[-------------] 

   slight. rit.
 |-------------------------|----------------------|------------------------|
 |-------------------------|----------------------|------------------------|
 |-------------------------|----------------------|------------------------|
 |-------------------------|----------------------|------------------------|
 |-------------------------|----------------------|------------------------|
 |---3------------2--------|----------3----------2|----------3---2--5--1--4|
 |---2------------1--------|-2--5--2----1--4--1---|-2--5--2------2--5--1--4|
                                                             P.M[----------]

  Verse (0:25)
 Gtrs. 1&2
 |-------------------------|-------------------------|
 |-------------------------|-------------------------|
 |-------------------------|-------------------------|
 |-------------------------|-------------------------|
 |-------------------------|-------------------------|
 |-----------3------------2|-----------3---2--5--1--4|
 |--2--5--2------1--4--1---|--2--5--2------2--5--1--4|


                               (repeat prev. bar)
 |-------------------------|--------------------------|
 |-------------------------|-----------.--------------|
 |-------------------------|------------/.------------|
 |-------------------------|--------------------------|
 |-------------------------|--------------------------|
 |-------------------------|--------------------------|
 |-----------3-----------2-|--------------------------|
 |--2--5--2-----1--4--1----|--------------------------|


           P.H.        P.H.           P.H
 |-------------------------|---------------------------|
 |-------------------------|---------------------------|
 |-------------------------|---------------------------|
 |-------------------------|---------------------------|
 |-------------------------|---------------------------|
 |--2--5--2-3b--1--4--1--2b|--2--5--2--3b--2--5--1--2--|
 |--2--5--2-----1--4--1----|--2--5--2------2--5--1--2--|
 P.M[------]   [-------]     [-------]    [----------]


 (0:30)
  slight palm mute throughout
||------------------------|--------|-------|----------------------|
||*-----------------------|--------|-------|----------------------|
||------------------------|---.----|--.----|----------------------|
||*-----------------------|----/.--|---/.--|----------------------|
||------------------------|--------|-------|----------------------|
||--0--------0------------|--------|-------|-0---------0--0--0----|
||--1--------1------------|--------|-------|-1---------1--1--1----|
                                      (play 3 times)
 |------------------------|------------------------||
 |------------------------|-----------------------*||
 |------------------------|------------------------||
 |*-----------------------|-----------------------*||
 |--0--------0------------|-0---------0--0--0------||
 |--1--------1------------|-1---------1--1--1------||


 |---------------------------------------------------|
 |---------------------------------------------------|
 |---------------------------------------------------|
 |---------------------------------------------------|
 |---------------------------------------------------|
 |---------------------------------------------------|
 |-4--1--1--1---1--1--4--1---1--1--1--1---4--1--1--1-|
 P.M[------------------------------------------------]
                               
                              
                                          1st time: gtr. 1
                              Riff A      2nd time: gtrs. 1&2
 |-------------------------||-----------------------------------------||
 |-------------------------||*---------------------------------------*||
 |-------------------------||-----------------------------------------||
 |-------------------------||-----------------------------------------||
 |-------------------------||*---------------------------------------*||
 |-------------------------||--------4h7--3h6-------3h6--2h5------2h5-||
 |--1--1--4--1---1--1--1--1||---5h8------------3h6------------2h5-----||


  Chorus (1:09)
  
  gtrs. 1&2 substitute riff A 4 times on repeat

[trem. pick----------------]
||-------------------------|--------|--------|--------||
||*------------------------|--------|--------|-------*||
||-------------------------|--------|--------|--------||
||-------------------------|---.----|---.----|---.----||
||*------------------------|----/.--|----/.--|----/.-*||
||----4--3-----3--2-----2--|--------|--------|--------||
||--5-------3--------2-----|--------|--------|--------||


                                             play 4 times
||--------------------------|----------------------------||
||*-------------------------|---------------------------*||
||--------------------------|----------------------------||
||-----------6--5-----------|-5--4-----------------------||
||*----------x--x-----------|-x--x----------------------*||
||--5--5--5--4--3---3--3--3-|-3--2---2--2--2---2--2--2---||
||--5--5--5---------3--3--3-|--------2--2--2---2--2--2---||
P.M[-------]       [-------]        [-----------------] 

                                 play 4 times
||-------------------------------------------||
||*-----------------------------------------*||
||-------------------------------------------||
||-------------------------------------------||
||*-----------------------------------------*||
||--5--1---2-(2)--5--0---1-(1)--2---1--5--2--||
||--5--1---2-(2)--5--0---1-(1)--2---1--5--2--||
P.M[---------------------------------------] 

 |--------------------------|
 |--------------------------|
 |--------------------------|
 |----------------------rest|
 |--------------------------|
 |--0---0-(0)---0---0-------|
 |--1---1-(1)---1---1-------|
 [light P.M----------]

 (1:50)
||-------------------------------|--------|--------|--------||
||*------------------------------|--------|--------|-------*||
||-------------------------------|--------|--------|--------||
||-------------------------------|---.----|---.----|---.----||
||*------------------------------|----/.--|----/.--|----/.-*||
||--0---0--(0)--0---0--(0)-0--0--|--------|--------|--------||
||--1---1--(1)--1---1--(1)-1--1--|--------|--------|--------||
[light P.M---------------------]

  w/ double-time "blast beat" feel
                      play 4 times
[trem. pick---------------------]
||-------------------------------||----------------------------------------|
||*-----------------------------*||*---------------------------------------|
||-------------------------------||----------------------------------------|
||-------------------------------||----------------------------------------|
||*-----------------------------*||*---------------------------------------|
||--------3--6--------2--5-------||-------3h6--------2h5------3h6------2h5-|
||--2--5--------1--4-------------||--2h5--------1h4------2h5------1h4------|

                                P.H                               P.H
 |---------------------------------|---------------------------------|------|
 |---------------------------------|---------------------------------|------|
 |---------------------------------|---------------------------------|-rest-|
 |---------------------------------|---------------------------------|------|
 |---------------------------------|---------------------------------|------|
 |-------3h6-------2h5--2--5--1--2b|-------3h6-------2h5--2--5--1--2b|--0---|
 |--2h5--------1h4------2--5--1----|--2h5--------1h4------2--5--1----|--0---|
                    P.M[-------]                      P.M[-------]


   transcribed by Andy Aledort
Suggest correction
Give kudos to tab author, rate the tab!
1 2 3 4 5
comments
print report bad tab
guest
You may want to rate the tab now too:
select rating
Wanna post a correction for this tab? Suggest correction