Oops, an error
Loading. Please wait.

Destruction Of A Statue Bass Tab

version 1
version 1

Whole song

Interactive

2,795 views 6 this week
1 commentread comment
1 2 3 4 5
please rate
add to favorites
launch autoscroll
font size
0
reset
guitar tuner
Tab Pro tools
  • play this tab
  • loop segment
  • change instrument
  • show fretboard
  • metronome
×
Best way to learn
"Destruction Of A Statue"
Autoscroll
slow
fast
+/-
esc
set tempo
stop
Contributor
Difficulty
Tuning
intermediate
A E A D F# B
                Destruction of a Statue - Suicide Silence

Tuning: Drop A (Low to High:A E A D)

yes, i know suicide silence uses 5-string basses but i don't have one so i tabbed it out 
a 4-string just tune it down like this:

D|-------|
A|-------|
E|-------|
A|-------|

This is my 1st tab  so i hope you like it!! Please Rate!! R.I.P. M.J.!!

|---------------------------------------------------------------------|
|---------4-4---------4-4---------4---------4-4---------4-4---------4-|
|---------------------------------------------------------------------|
|-3-3-3-3-----3-3-3-3-----3-3-3-3---3-3-3-3-----3-3-3-3-----3-3-3-3---|

|-------------------------------------------------------------------------|
|---------4-4---------4-4---------4---------4-4---------4-4---------4-4-4-|
|-------------------------------------------------------------------------|
|-3-3-3-3-----3-3-3-3-----3-3-3-3---3-3-3-3-----3-3-3-3-----3-3-3-3-------|

|-------------------------------------------------|
|-----------------------4-4---------4-4---------4-|
|-------------------------------------------------|
|-2-1-0-1-2-1-0-3-3-3-3-----3-3-3-3-----3-3-3-3---|


|-------------------------------------------------------------------------|
|---------4-4---------4-4---------4---------4-4---------4-4---------4-4-4-|
|-------------------------------------------------------------------------|
|-3-3-3-3-----3-3-3-3-----3-3-3-3---3-3-3-3-----3-3-3-3-----3-3-3-3-------|

|-----------------|-|-------------------------------------------------|
|-----------------|-|-------0-0-0-------------------------------4-4-4-|
|-----------------|-|-------------1-1-1-------------------1-1-1-------|
|-2-1-0-1-2-1-0-1-|-|-0-0-0-------------4-4-4-0-0-0-4-4-4-------------|


|-------------------------------------------------|-|-----------------|
|-------0-0-0-------------------------------4-4-4-|-|-----------------|
|-------------1-1-1-------------------1-1-1-------|-|-----------------|
|-0-0-0-------------4-4-4-0-0-0-4-4-4-------------|-|-0-1-0-1-2-1-0-1-|

|------------------------------------------------------------------------|
|------------------------------------------------------------------------|
|---------------------------------3--------------------------------------|
|-0-1-0-1-2-1-0-1-0-1-0-1-2-1-0-1--------0-1-0-1-2-1-0-1-0-1-0-1-2-1-0-1-|

|------------------------------|-|
|-----------------0---------3--|-|
|----------------------1-------|-|
|-0-1-0-1-2-1-0-1--------------|-|


|-------------------------------------------------------|
|---------------------------------------------0-------3-|
|-------------------------------------------------1-----| x2
|-2-1-2-1-5-1-2-1-2-1-2-5-1-2-1-2-1-2-5-1-2-1-----------|


|--------------------------------------------------|
|--------------------------------------------------|
|--------------------------------------------------| x2
|-0-0----------------------0-0---------------------|


|--------------------------------------------------|
|--------0-0-0-------------------------------4-4-4-|
|--------------1-1-1-------------------1-1-1-------| x6
|--0-0-0-------------4-4-4-0-0-0-4-4-4-------------|


|---------------------------------------------------------------------|
|---------4-4---------4-4---------4---------4-4---------4-4---------4-|
|---------------------------------------------------------------------|
|-3-3-3-3-----3-3-3-3-----3-3-3-3---3-3-3-3-----3-3-3-3-----3-3-3-3---|

|--------------------------------------------------------------------------|
|---------4-4---------4-4---------4---------4-4---------4-4---------4-4----|
|-----------------------------------------------------------------------5--|
|-3-3-3-3-----3-3-3-3-----3-3-3-3---3-3-3-3-----3-3-3-3-----3-3-3-3--------|


|--------------------------------------|
|--------------------------------------|
|--------------------------------------| x3
|-0-0-0-0-0-0------0-0-0-0-0-0-0-0-0-0-|


|--------------------------------------------------------------------------|
|--------------4-4---------4-4---------4---------4-4---------4-4---------4-|
|--------------------------------------------------------------------------|
|-/12\-3-3-3-3-----3-3-3-3-----3-3-3-3---3-3-3-3-----3-3-3-3-----3-3-3-3---|

|-----------------------------------|
|---------4-4---------4-4---------4-|
|-----------------------------------|
|-3-3-3-3-----3-3-3-3-----3-3-3-3---|

|------------------------------------------------------------|
|-----------------5------------------------------------------|
|-----5---7---8-------8---7---8-----8---10---8-----5---7---8-|
|-0-0---0---0---0---0---0---0---8-8---8----8---5-5---5---5---|

|------------------------------------------------------------|
|-----------------5---------------------7--------------------|
|-----5---7---8-------8---7---8-----8-------10-----3---8---5-|
|-0-0---0---0---0---0---0---0---8-8---8---8----5-5---5---5---|

|-------------------------------------------------|
|------------5------------------------------------|
|---5--7--8-----8--7--8----8--10--8----5--7--8----|
|-0----------------------8-----------5----------0-|

|-----------------------------------------------|
|------------5----------------7-----------------|
|---5--7--8-----8--7--8----8-----10----3--8--5--|
|-0----------------------8-----------5----------|


|---------------------------------------------------|
|---------------------------------------------------|
|---------------------------------------------------|
|-6-----------6-----------2------2--2------2--------|

|---------------------------------------------------------------------|
|---------------------------------------------------------------------|
|---------------------------------------------------------------------| x3
|-3--6-6-6--5-5-5--2-2-2--3-3--6-6-6--5-5-5--2-2-2--3-3--6-6-6--5-5-5-|



|----------------------------------------------------------------|
|----------------------------------------------------------------|
|----------------------------------------------------------------|
|-0----------(0)--------------(0)------------(0)-------------(0)-|

|-------------------------------------------------------|
|---------------------------------------------0-------3-|
|-------------------------------------------------1-----| x2
|-2-1-2-1-5-1-2-1-2-1-2-5-1-2-1-2-1-2-5-1-2-1-----------|

well there you have it Destruction of a Statue by Suicide Silence (Best Band In The 
Please Rate and Comment!!
comments
We did not receive enough feedback on this tab! Please rate:
print report bad tab
1 2 3 4 5
1 comment total.
0 reply
^SiVART^ wrote on November 9 2009, 08:20 pm

This Is An AWESOME TAB!!! keep it up!!!

I want to post or [tab]
guest
You may want to rate the tab now too:
select rating
Please do not post tabs as comments. Select "correction" instead!