Oops, an error
Loading. Please wait.

Destruction Of A Statue Tab

version 1
version 1

Whole song

Interactive

7,500 views 3 this week
1 commentread comment
1 2 3 4 5
please rate
add to favorites
launch autoscroll
font size
0
reset
how to read this tab
guitar tuner
Autoscroll
slow
fast
+/-
esc
set tempo
stop
Help us to improve Ultimate-Guitar.com Take our survey!
×
Difficulty
Tuning
intermediate
A E A D F# B
well this is my first song that i tab here and the first of suicide silence
so you have observations please give me to: jmro00791@hotmail.com

signs
* pinch harmonic
^ tremolo picking
pm palm mute

drop: A
suicide silence rules

intro:
riff1
b |-------------------------|       b |----------------------------------|
f#|-------------------------|       f#|----------------------------------| 
d |-----9-9------9-9-----9--|x3     d |-----9-9-----9-9------9------999--|x1
a |-----8-8------8-8-----8--|       a |-----8-8-----8-8------8------888--|
e |-----6-6------6-6-----6--|       e |-----6-6-----6-6------6------666--|
a |-00--------00------00----|       a |-00-------00------00-----00-------|
pm  ..        ..      ..                ..       ..      ..     ..
e|--000----| and again the intro 
a|--000----|
riff2
b |-----------------------|
f#|-----------------------|
d |-----------------------|
a |-----------------------|
e |-----------------------|
a |-6-0-5-0-8-0-5-0-6-0-8-| 
riff3                             riff4     
b |------------------|            b|----------|
f#|------------------|           f#|----------|
d |------------------|x7 or 8     d|-9--5-----|
a |------------------|            a|-x--x-----|
e |------------------|            e|-7--3--5*-|
a |-3h2-3h2-6-2-3h2--|            a|----------| 
riff4.1
b |--------------------------|      b|----------|
f#|--------------------------|     f#|----------|
d |--------------------------|x3    d|-9--5-----|
a |--------------------------|      a|-x--x-----|
e |--------------------------|      e|-7--3--5*-|
a |-4-2-3-2-5-2-3-2----------|      a|----------|
pm  ...............

riff4.1 again x3 times 

riff5
b |---------------------------|
f#|---------------------------|
d |---------------------------|
a |---3^-2^-------------------|
e |------------3^-4^----------|
a |-00------00----------------|

intro 

riff6
b |---------------------------|
f#|---------------------------|
d |---------------------------|x2
a |---------------------------|
e |---------------------------|
a |-00000-------0000000000000-|

riff7
b |---------------------------|
f#|---------------------------|
d |---9-9---9----9-9----------|
a |---x-x---x----x-x----------|
e |---6-6---6----6-6----------|
a |-0-----0----0--------------|

fiff8
b |--------------------------------------|
f#|--------------------------------------|
d |--------------------------------------|
a |--------------------------------------|
e |---5-4---8-6-5-6----7-8-7----5-7-8----|
a |-00----0---------00-------00----------|

riff9 this is the slow part
b |---------------------------|
f#|---------------------------|
d |---------------------------|
a |-2--------2----------------|
e |-2--------2----------------|
a |-2----22--2----------------|

b |-0--------------------------|
f#|-0--------------------------|
d |-0--------------------------|
a |-0--------------------------|
e |-0--------------------------|
a |-0--------------------------| here the sound dying

riff 10
b |--------------------------|      b|----------|
f#|--------------------------|     f#|----------|
d |--------------------------|x3    d|-9--5-----|
a |--------------------------|      a|-x--x-----|
e |--------------------------|      e|-7--3--5*-|
a |-4-2-3-2-5-2-3-2----------|      a|----------|
pm  ...............
           
                                      end


Suggest correction
Give kudos to tab author, rate the tab!
1 2 3 4 5
comments
print report bad tab
1 comment total.
0 reply
ShreddingDead13 32 wrote on January 7 2013, 09:35 pm

ahem, 7 strings.

guest
You may want to rate the tab now too:
select rating
Wanna post a correction for this tab? Suggest correction