Oops, an error
Loading. Please wait.

Disengage Tab

version 2
version 2

Intro

Whole song

Interactive

14,823 views 12 this week
12 commentsread comments
1 2 3 4 5
accurate
x 4
add to favorites
launch autoscroll
font size
0
reset
how to read this tab
guitar tuner
Tab Pro tools
  • play this tab
  • loop segment
  • change instrument
  • show fretboard
  • metronome
Autoscroll
slow
fast
+/-
esc
set tempo
stop
Contributor
----------------------------------------------------------------------------
                         Disengage - Suicide Silence
----------------------------------------------------------------------------
Album: No Time To Bleed
Tabbed by: mcr_2010

Description: Pretty Much Something to work off of for the song.
Im currently working on this tab, but i figured to post this to 
see what everyone thinks. Hopefully its a good start. Please Rate and Comment!

Tuning: Drop A (low to high) AEADF#B

B|------------------------------------------------------------|
F#|-----------------------------------------------------------|
D|------------------------------------------------------------|
A|--0-1-3-2-3-2--0-1-3----------------------------------------|
E|--0-1-3-2-3-2--0-1-3-2~-------------------------------------|
A|--0-1-3-2-3-2--0-1-3----------------------------------------|
PM  * * * * * *  * * *


B|------------------------------------------------------------|
F#|-----------------------------------------------------------|
D|------------------------------------------------------------|
A|--0-1-3-2-3--0-1-3------------------------------------------|(x10)
E|--0-1-3-2-3--0-1-3-2~---------------------------------------|
A|--0-1-3-2-3--0-1-3------------------------------------------|
PM  * * * * *  * * *

This is played up until the verse/main riff kicks in. 


| /  slide up
| \  slide down
| h  hammer-on
| p  pull-off
| ~  vibrato
| +  harmonic
| x  Mute note
================================================================================
comments
print report bad tab
12 comments total. Showing first comments.
0 reply
grenade007 wrote on September 7 2009, 05:30 pm

looking forward to the full tab!

0 reply
mcr_2010 wrote on September 8 2009, 11:03 am

thanks man! hopefully i can get it posted soon!!

+1 reply
wecaughtfire wrote on September 12 2009, 10:31 pm

this sounds pretty good, but i think i got the riff after wards
i think it's
B|------------------------------------------------------------|
F#|-----------------------------------------------------------|
D|-----6-5-6-8-9-8-6-5-x2-------------------------------------|
A|------------------------------------------------------------|
E|------------------------------------------------------------|
A|------------------------------------------------------------|
im trying to figure out the opart where he palm mutes but i haven got it yet but im pretty sure thats the start so im sure someone can finish it.

I want to post or [tab]
guest
You may want to rate the tab now too:
select rating
Please do not post tabs as comments. Select "correction" instead!