Oops, an error
Loading. Please wait.

Disengage Tab

version 1
version 1

Whole song

Interactive

56,866 views 39 this week
2 commentsread comments
1 2 3 4 5
x 3
add to favorites
launch autoscroll
font size
0
reset
how to read this tab
guitar tuner
backing track
0:00
0:00
×
Best way to learn
"Disengage"
Autoscroll
slow
fast
+/-
esc
set tempo
stop
Author
Difficulty
Tuning
intermediate
D A D G B E
Tuning: Drop D
No capo

E|--------------------|(x12)
B|--------------------|(0:28 seconds from start.)
G|-------------------3|
D|--3-2-0-3-2-0-3-2-0-|
A|--3-2-0-3-2-0-3-2-0-|
D|--3-2-0-3-2-0-3-2-0-|
PM__________________

E|-----------------------------------------------------------------|
B|--------------------------------7--------------------------------|
G|-b4-3-4-3-7-6-4-3-4-3-4-3-7-6-7--7-6-4-3-4-3-7-6-4-3-4-3-7-6-4-3-|
D|-----------------------------------------------------------------|
A|-----------------------------------------------------------------|
D|-----------------------------------------------------------------|
                        PM__________               PM___________

E|--------------------|(x9)
B|--------------------|
G|--------------4-----|
D|-1-1-1-1-1---0------|
A|-1-1-1-1-1--3-------|
D|-1-1-1-1-1----------|
PM_________

E|----------------------------------------------------------------|(x3)
B|--------------------------------7-------------------------------|
G|-b4-3-4-3-7-6-4-3-4-3-4-3-7-6-7--7-6-4-3-4-3-7-6-4-3-4-3-7-6-4-3|
D|----------------------------------------------------------------|
A|----------------------------------------------------------------|
D|----------------------------------------------------------------|
                        PM__________               PM___________

E|--------------------------------------------------| (x3)
B|--------------------------------------------------|
G|--------------------------------------------------|
D|-2--5--1--1-2\--2-2-2-2-2-2-2-2-2-2-2-------4-5-4-|
A|-2--5--1--1-2\--2-2-2-2-2-2-2-2-2-2-2-4-5-4-------|
D|-2--5--1--1-2\--2-2-2-2-2-2-2-2-2-2-2-------------|
PM___________________________________

(The one above is the same as this one under just lost roo)m, reapeat
this whole section marked with stars as it says above.

E|---------------------------------------------------------------|
B|---------------------------------------------------------------|
G|-----------------------------1-------------------------1-------|
D|-1-1-1-1-1-1-1-1-1-1-1-1---2-1-------------------1---2-1-------|
A|-1-1-1-1-1-1-1-1-1-1-1-1-2-2---------------------1-2-2---------|
D|-1-1-1-1-1-1-1-1-1-1-1-1-2-----1-3-4-3-1-3-4-3-1-1-2-----------|
PM_____________________________                   _

E|---------------------------------------------------------------|
B|---------------------------------------------------------------|
G|-----------------------------1-------------------------1-------|
D|-1-1-1-1-1-1-1-1-1-1-1-1---2-1-------------------1---2-1-------|
A|-1-1-1-1-1-1-1-1-1-1-1-1-2-2---------------------1-2-2---------|
D|-1-1-1-1-1-1-1-1-1-1-1-1-2-----1-3-4-3-1-3-4-3-1-1-2-----------|
PM_______________________                         _

E|----------------------------------------------------------------|
B|----------------------------------------------------------------|
G|----------------------------------------------------------------|
D|-5-4--1/13-1/13-1/13--------------------------------------------|
A|-5-4--1/13-1/13-1/13-1/13-14------------------------------------|
D|-3-4--1/13-1/13-1/13--------------------------------------------|

E|----------------------------------------------------------------|
B|------------------------------7---------------------------------|
G|-b3-4-3-7-6-4-3-4-3-4-3-7-6-7--7-6-4-3-4-3-7-6-4-3-4-3-7-6-4----|
D|----------------------------------------------------------------|
A|----------------------------------------------------------------|
D|----------------------------------------------------------------|
                        PM__________               PM___________

E|----------------|
B|-12-------------|
G|-15-------------|
D|----------------|
A|----------------|
D|----------------|

E|----------------|(x7)
B|----------------|
G|--------------4-|
D|-1-1-1-1-1---0--|
A|-1-1-1-1-1--3---|
D|-1-1-1-1-1------|
PM_________

E|----------------|
B|-----------12---|
G|-----------15---|
D|-1-1-1-1-1------|
A|-1-1-1-1-1------|
D|-1-1-1-1-1------|
PM_________

E|--------------------|(x4)
B|--------------------|
G|-------------------3|
D|--3-2-0-3-2-0-3-2-0-|
A|--3-2-0-3-2-0-3-2-0-|
D|--3-2-0-3-2-0-3-2-0-|
PM__________________

E|---------------------------------------------------------------|
B|---------------------------------------------------------------|
G|---------------------------------------------------------------|
D|-3-2-0-3-2-0-3-2-0--2--5--1------------------------------------|
A|-3-2-0-3-2-0-3-2-0--2--5--1------------------------------------|
D|-3-2-0-3-2-0-3-2-0--2--5--1------------------------------------|
PM__________________

E|--------------------------------------------------| (x3)
B|--------------------------------------------------|
G|--------------------------------------------------|
D|-------1--1-2\--2-2-2-2-2-2-2-2-2-2-2-------4-5-4-|
A|-------1--1-2\--2-2-2-2-2-2-2-2-2-2-2-4-5-4-------|
D|-------1--1-2\--2-2-2-2-2-2-2-2-2-2-2-------------|
PM____________________________________

E|---------------------------------------------------------------|
B|---------------------------------------------------------------|
G|-----------------------------1-------------------------1-------|
D|-1-1-1-1-1-1-1-1-1-1-1-1---2-1-------------------1---2-1-------|
A|-1-1-1-1-1-1-1-1-1-1-1-1-2-2---------------------1-2-2---------|
D|-1-1-1-1-1-1-1-1-1-1-1-1-2-----1-3-4-3-1-3-4-3-1-1-2-----------|
PM_______________________                         _

E|----------------------|
B|----------------------|
G|----------------------|
D|-5-4------------------|
A|-5-4------------------|
D|-3-4------------------|

E|----------------------|(x10)
B|----------------------|
G|----------------------|
D|---1/13-1/13----------|
A|---1/13-1/13----------|
D|---1/13-1/13----------|

E|----------------------|
B|----------------------|
G|----------------------|
D|-0-0-0-0-0------------|
A|-0-0-0-0-0------------|
D|-0-0-0-0-0------------|
Suggest correction
Give kudos to tab author, rate the tab!
1 2 3 4 5
comments
print report bad tab
2 comments total.
0 reply
a_n00berthon 77 Dec 15, 2009 02:23 PM

Tuning is completely wrong. They play on 7 string guitars.
Top String: A
E
A
D
G
B
Bottom String: E

+1 reply
AraThiOn 60 Aug 15, 2012 04:26 AM

Yeah, deathcore played in Drop D. Seems legit.

guest
You may want to rate the tab now too:
select rating
Wanna post a correction for this tab? Suggest correction