Oops, an error
Loading. Please wait.

Disengage Tab

version 2
version 2

Whole song

Interactive

5,795 views 3 this week
no commentswrite comment
1 2 3 4 5
please rate
add to favorites
launch autoscroll
font size
0
reset
how to read this tab
guitar tuner
Tab Pro tools
  • play this tab
  • loop segment
  • change instrument
  • show fretboard
  • metronome
×
Best way to learn
"Disengage"
Autoscroll
slow
fast
+/-
esc
set tempo
stop
Difficulty
intermediate
Disengage- Suicide Silence
7 STRING

Pm__ palm mute
* - Natural harmonic 
h - hammer on
p - pull off
b - bend string
r - release bend
\ - slide up


e---------------------|x12
B---------------------|about 0:28 seconds from start.
G-------------------*3|
D---------------------|
A--3-2-0-3-2-0-3-2-0--|
E--3-2-0-3-2-0-3-2-0--|
A--3-2-0-3-2-0-3-2-0--|
PM__________________

e------------------------------------------------------------------|
B--------------------------------7-------------------------------0-|
G-b4-3-4-3-7-6-4-3-4-3-4-3-7-6-7--7-6-b4-3-4-3-7-6-4-3-4-3-7-6-4-3-|
D------------------------------------------------------------------|
A------------------------------------------------------------------|
E------------------------------------------------------------------|
A------------------------------------------------------------------|
                        PM__________               PM___________

e----------------|x8
B----------------|
G--------------*4|
D-------------0--|
A-1-1-1-1-1--3---|
E-1-1-1-1-1------|
A-1-1-1-1-1------|
PM_________

e----------------------------------------------------------------|x3
B--------------------------------7-------------------------------|
G--4-3-4-3-7-6-4-3-4-3-4-3-7-6-7--7-6-4-3-4-3-7-6-4-3-4-3-7-6-4-3|
D----------------------------------------------------------------|
A----------------------------------------------------------------|
E----------------------------------------------------------------|
A----------------------------------------------------------------|
                        PM__________               PM___________

&&&&&&&&&&&&&&&&&&&&&&&&&&&&&&&&&&&&&&&&&&&&&&&&&&&&&&&&&&&&&&&&&
e--------------------------------------------------| X3
B--------------------------------------------------|
G--------------------------------------------------|
D------------------------------------------4-5-4---|
A-2--5--1--1-2\--2-2-2-2-2-2-2-2-2---4-5-4---------|
E-2--5--1--1-2\--2-2-2-2-2-2-2-2-2-----------------|
A-2--5--1--1-2\--2-2-2-2-2-2-2-2-2-----------------|
PM___________________________________

The one above is the same as this one under just lost room, reapeat
this whole section marked with "&'s" as it says.
e---------------------------------------------------------------|                    
B---------------------------------------------------------------|
G---------------------------------------------------------------|
D---------------------------------------------------------------|
A---1-1-1-1-1-1-1-1-1-----2-1-----------------------2-1---------|
E---1-1-1-1-1-1-1-1-1---2-2-1--1-3-4-3-1-3-4-3-1--2-2-1---------|
A---1-1-1-1-1-1-1-1-1---2-------------------------2-------------|

PM_______________________                                                 _
&&&&&&&&&&&&&&&&&&&&&&&&&&&&&&&&&&&&&&&&&&&&&&&&&&&&&&&&&&&&&&&&&

e---------------------------------------------------------------|                    
B---------------------------------------------------------------|
G---------------------------------------------------------------|
D---------------------------------------------------------------|
A---1-1-1-1-1-1-1-1-1-----2-1-----------------------2-1---------|
E---1-1-1-1-1-1-1-1-1---2-2-1--1-3-4-3-1-3-4-3-1--2-2-1---------|
A---1-1-1-1-1-1-1-1-1---2-------------------------2-------------|

PM_______________________                         

e----------------------------------------------------------------|
B----------------------------------------------------------------|
G----------------------------------------------------------------|
D-5--------------------------------------------------------------|
A-5--4--1/13-1/13-1/13-1/13-13-14--------------------------------|
E----4--1/13-1/13-1/13-------------------------------------------|
A-3--4--1/13-1/13-1/13-------------------------------------------|

e----------------------------------------------------------------|
B------------------------------7---------------------------------|
G-b3-4-3-7-6-4-3-4-3-4-3-7-6-7--7-6-b4-3-4-3-7-6-4-3-4-3-7-6-4---|
D----------------------------------------------------------------|
A----------------------------------------------------------------|
E----------------------------------------------------------------|
A----------------------------------------------------------------|
                        PM__________               PM___________


e----------------|
B-12-------------|
G-15-------------|
D----------------|
A----------------|
E----------------|
A----------------|

e----------------|x7
B----------------|
G--------------*4|
D-------------0--|
A-1-1-1-1-1--3---|
E-1-1-1-1-1------|
A-1-1-1-1-1------|
PM_________

e----------------|
B-----------12---|
G-----------15---|
D----------------|
A-1-1-1-1-1------|
E-1-1-1-1-1------|
A-1-1-1-1-1------|
PM_________

e---------------------|x4
B---------------------|
G-------------------*3|
D---------------------|
A--3-2-0-3-2-0-3-2-0--|
E--3-2-0-3-2-0-3-2-0--|
A--3-2-0-3-2-0-3-2-0--|
PM__________________

e---------------------------------------------------------------|
B---------------------------------------------------------------|
G---------------------------------------------------------------|
D---------------------------------------------------------------|
A-3-2-0-3-2-0-3-2-0--2--5--1------------------------------------|
E-3-2-0-3-2-0-3-2-0--2--5--1------------------------------------|
A-3-2-0-3-2-0-3-2-0--2--5--1------------------------------------|
PM__________________

e--------------------------------------------------| X3
B--------------------------------------------------|
G--------------------------------------------------|
D-----------------------------------------4-5-4----|
A-------1--1-2\--2-2-2-2-2-2-2-2-2--4-5-4----------|
E-------1--1-2\--2-2-2-2-2-2-2-2-2-----------------|
A-------1--1-2\--2-2-2-2-2-2-2-2-2-----------------|
PM____________________________________
                 
e----------------------------------------------------------------|                    
B----------------------------------------------------------------|
G----------------------------------------------------------------|
D----------------------------------------------------------------|
A---1-1-1-1-1-1-1-1-1-----2-1----------------------- 2-1---------|
E---1-1-1-1-1-1-1-1-1---2-2-1--1-3-4-3-1-3-4-3-1-3 2-2-1---------|
A---1-1-1-1-1-1-1-1-1---2------------------------- 2-------------|

PM_______________________                         

e----------------------|
B----------------------|
G----------------------|
D-5--------------------|
A-5-4------------------|
E---4------------------|
A-3-4------------------|

e----------------------|x10
B----------------------|
G----------------------|
D----------------------|
A---1/13-1/13----------|
E---1/13-1/13----------|
A---1/13-1/13----------|

E----------------------|
B----------------------|
G----------------------|
D----------------------|
A-0-0-0-0--------------|
E-0-0-0-0--------------|
A-0-0-0-0--------------|

e----------------------|
B----------------------|
G----------------------|
D----------------------|
A---1/13---------------|
E----------------------|
A----------------------|
comments
We did not receive enough feedback on this tab! Please rate:
print report bad tab
1 2 3 4 5
I want to post or [tab]
guest
You may want to rate the tab now too:
select rating
Please do not post tabs as comments. Select "correction" instead!