Oops, an error
Loading. Please wait.

Disengage Tab

version 3
version 3

Whole song

Interactive

56,979 views 81 this week
6 commentsread comments
1 2 3 4 5
accurate
x 17
add to favorites
launch autoscroll
font size
0
reset
how to read this tab
guitar tuner
Autoscroll
slow
fast
+/-
esc
set tempo
stop
Help us to improve Ultimate-Guitar.com Take our survey!
×
Author
Difficulty
Tuning
novice
A E A D F# B
                    This is a very close tab of disengage
                  i hope you enjoy it,its played in drop A
                    i have it tabbed out for 7 string but
                     can also be played 6 string drop A#
                         please rate and comment.


[Intro]

E|---------------------------------------|-
B|---------------------------------------|--
G|---------------------------------------|---
D|---------------------------------------|---- x 11
A|---------------------------------------|---
E|--0-1-2--0-1-2--1-2-1---1h2------------|--
A|--0-1-2--0-1-2--1-2-1------------------|-

E|---------------------------------------|-
B|---------------------------------------|--
G|---------------------------------------|---
D|---------------------------------------|---- x 1
A|---------------------------------------|---
E|--0-1-2--0-1-2--1-2-1------------------|--
A|--0-1-2--0-1-2--1-2-1------------------|-


E|---------------------------------------------------|
B|------------------------------------------7--------|
G|--3\4-3-4--6-7-6--4-3---3\4-3-4--6-7-6-4----6-4----|
D|---------------------------------------------------|
A|---------------------------------------------------|
E|---------------------------------------------------|
A|---------------------------------------------------|

E|-------------------------------------------------|
B|-------------------------------7--------12~------|
G|--3\4-3-4--6-7-6--4-3---7-6-4-----6-4---15~------|
D|-------------------------------------------------|
A|-------------------------------------------------|
E|-------------------------------------------------|
A|-------------------------------------------------|

E|---------------------------------------|-
B|--------------------19-----------------|--
G|---------------------------------------|---
D|---------------------------------------|---- x 8
A|--0---------4-4-4----------------------|---
E|--0-000-00-----------------------------|--
A|--0-000-00-----------------------------|-

or like this
E|---------------------------------------|-
B|---------------------------------------|--
G|-------------------5NH-----------------|---
D|---------------------------------------|---- x 8
A|--0---------4-4-4----------------------|---
E|--0-000-00-----------------------------|--
A|--0-000-00-----------------------------|-

E|---------------------------------------------------|
B|------------------------------------------7--------|
G|--3\4-3-4--6-7-6--4-3---3\4-3-4--6-7-6-4----6-4----|
D|---------------------------------------------------|
A|---------------------------------------------------|
E|---------------------------------------------------|
A|---------------------------------------------------|

E|-------------------------------------------------|
B|------------------------7---------------12~------|
G|--3\4-3-4--6-7-6--4-3-----6-4---7-6-4---15~------|
D|-------------------------------------------------|
A|-------------------------------------------------|
E|-------------------------------------------------|
A|-------------------------------------------------|

E|---------------------------------------|-
B|--------------------19-----------------|--
G|---------------------------------------|---
D|---------------------------------------|---- x 8
A|--0---------4-4-4----------------------|---
E|--0-000-00-----------------------------|--
A|--0-000-00-----------------------------|-

E|---------------------------------------|-
B|---------------------------------------|--
G|-------------------5NH-----------------|---
D|---------------------------------------|---- x 8
A|--0---------4-4-4----------------------|---
E|--0-000-00-----------------------------|--
A|--0-000-00-----------------------------|-

repeat this and below 4 times
E|---------------------------------------------------|
B|------------------------------------------7--------|
G|--3\4-3-4--6-7-6--4-3---3\4-3-4--6-7-6-4----6-4----|
D|---------------------------------------------------|
A|---------------------------------------------------|
E|---------------------------------------------------|
A|---------------------------------------------------|

E|-------------------------------------------------|
B|------------------------7---------------12~------|
G|--3\4-3-4--6-7-6--4-3-----6-4---7-6-4---15~------|
D|-------------------------------------------------|
A|-------------------------------------------------|
E|-------------------------------------------------|
A|-------------------------------------------------|

E|----------------------------------------------------|-
B|----------------------------------------------------|--
G|----------------------------------------------------|---
D|-------------------------------------------4h5p4----|---- x 1
A|--2~-5~-1~---------2----------4h5p4-----------------|---
E|--2~-5~-1~---------2--------------------------------|--
A|--2~-5~-1~--111111----111111---------0000-----------|-

E|----------------------------------------------------------------------|
B|----------------------------------------------------------------------|
G|----------------------------------------------------------------------|
D|----------------------------------------------------------------------| 
A|------------2---------1-----------------------------------2-------1---|
E|------------2---------1-----------------------------------2-------1---|
A|--11111111-----00000-----1-3-4-2-3-5-1-3-4-2-3-5--1111111---00000-----|

repeat this and the one under twice
E|------------------------------------|-
B|------------------------------------|--
G|------------------------------------|---
D|---------------------------4h5p4----|---- x 1
A|--2~----------4h5p4-----------------|---
E|--2~--------------------------------|--
A|--2~--111111---------0000-----------|-

E|----------------------------------------------------------------------|
B|----------------------------------------------------------------------|
G|----------------------------------------------------------------------|
D|----------------------------------------------------------------------| 
A|------------2---------1-----------------------------------2-------1---|
E|------------2---------1-----------------------------------2-------1---|
A|--11111111-----00000-----1-3-4-2-3-5-1-3-4-2-3-5--1111111---00000-----|

Then.
E|-----------------------------------------|
B|-----------------------------------------|
G|-----------------------------------------|
D|-----------------------------------------| 
A|--9~---4~---13/1--13/1--13/1--13/1--13~--|
E|--9~---4~---13/1--13/1--13/1--13/1--13~--|
A|--9~---4~---13/1--13/1--13/1--13/1--13~--|

[SOLO] RIFF
E|-----------------------------|
B|-----------------------------|
G|--1\3~-3~--3\4~--4/3~--------|
D|-----------------------------| 
A|-----------------------------|
E|-----------------------------|
A|-----------------------------|

E|---------------------------------------------------|
B|---------------------------------------------------|
G|--3\4-3-4--6-7-6--4-3---3\4-3-4--6-7-6-4--3-4-3----|
D|---------------------------------------------------|
A|---------------------------------------------------|
E|---------------------------------------------------|
A|---------------------------------------------------|

E|-------------------------------------------------|
B|------------------------7---------------12~------|
G|--3\4-3-4--6-7-6--4-3-----6-4---7-6-4---15~------|
D|-------------------------------------------------|
A|-------------------------------------------------|
E|-------------------------------------------------|
A|-------------------------------------------------|

heres one of the guitars
E|-------------------------------------------------|
B|--12-12-12-12-12-12-1212-1212~-------------------|
G|--15-15-15-15-15-15-1515-1515~-------------------|
D|-------------------------------------------------|
A|-------------------------------------------------|
E|-------------------------------------------------|
A|-------------------------------------------------|

E|---------------------------------------|-
B|---------------------------------------|--
G|---------------------------------------|---
D|---------------------------------------|---- x 5
A|---------------------------------------|---
E|--0-1-2--0-1-2--1-2-1---1h2------------|--
A|--0-1-2--0-1-2--1-2-1------------------|-

E|---------------------------------------|-
B|---------------------------------------|--
G|---------------------------------------|---
D|---------------------------------------|---- x 1
A|---------------------------------------|---
E|--0-1-2--0-1-2--1-2-1------------------|--
A|--0-1-2--0-1-2--1-2-1------------------|-

E|----------------------------------------------------|-
B|----------------------------------------------------|--
G|----------------------------------------------------|---
D|-------------------------------------------4h5p4----|---- x 1
A|--2~-5~-1~---------2----------4h5p4-----------------|---
E|--2~-5~-1~---------2--------------------------------|--
A|--2~-5~-1~--111111----111111---------0000-----------|-

E|----------------------------------------------------------------------|
B|----------------------------------------------------------------------|
G|----------------------------------------------------------------------|
D|----------------------------------------------------------------------| 
A|------------2---------1-----------------------------------2-------1---|
E|------------2---------1-----------------------------------2-------1---|
A|--11111111-----00000-----1-3-4-2-3-5-1-3-4-2-3-5--1111111---00000-----|

Then ending breakdown
E|------------|
B|------------|
G|------------|
D|------------| 
A|--9~---4~---|
E|--9~---4~---|
A|--9~---4~---|

E|------------------------------------------|-
B|------------------------------------------|--
G|------------------------------------------|---
D|------------------------------------------|---- x 2
A|--13/1--13/1--13/1--13/1--13/1-13/1-13/1--|---
E|--13/1--13/1--13/1--13/1--13/1-13/1-13/1--|--
A|--13/1--13/1--13/1--13/1--13/1-13/1-13/1--|-

ending
E|-----------------------------|-
B|-----------------------------|--
G|-----------------------------|---
D|-----------------------------|---- x 1
A|--1~--1~--1~--1~-------PS----|---
E|--1~--1~--1~--1~-------PS----|--
A|--1~--1~--1~--1~-------PS----|-

               Hope you enjoyed this tab and found it
                useful,please rate and comment (:



************************************

~  - let ring
PS - pick slide
h  - hammer on
p  - pull off
x  - times played
/  - slide
NH - natural harmonic

************************************
Suggest correction
comments
print report bad tab
6 comments total. Showing first comments.
0 reply
deftools 20 wrote on August 1 2010, 05:33 am

This tab is pretty close but, the main slower riff is wrong. if you listen there are clearly three different notes before the natural harmonic, they definitely don't just play :

A|--0---------4-4-4----------------------|---
E|--0-000-00-----------------------------|--
A|--0-000-00--------------

+1 reply
jjkkllmmnn 166 wrote on January 31 2011, 09:17 pm

i think what he means is this, it sounds right on mine

A|--0---------4h5p4-------------------|
E|--0-000-00--------------------------|
A|--0-000-00--------------------------|

otherwise freakin awesome tab brah! :D

-1 reply
Kjalk 10 wrote on August 19 2012, 06:40 pm

Should be F# not G

guest
You may want to rate the tab now too:
select rating
Please do not post tabs as comments. Select "correction" instead!