Oops, an error
Loading. Please wait.

Eyes Sewn Shut Bass Tab

version 1
version 1

Whole song

Interactive

1,323 views 3 this week
no commentswrite comment
1 2 3 4 5
please rate
add to favorites
launch autoscroll
font size
0
reset
guitar tuner
Autoscroll
slow
fast
+/-
esc
set tempo
stop
Help us to improve Ultimate-Guitar.com Take our survey!
×
Author
Difficulty
Tuning
intermediate
A E A D F# B
Suicide Silence-Eyes Sewn Shut

ok this is my fave song off of the cleansing hope you enjoy!!!!

tuning drop A (AEAD)





Intro/Chorus
0:00

D |----------------------------------------------------|
A |----------------------------------------------------|
E |-3-3-3-------------------3-3-3-------4-4-4----------|
A |-------3-1-0-3-1-0-3-1-0-------3-1-0-------3-1-0----|
          

verse
"Sewing the eyes shut of the man who saw God..."
0:13

D |-------|------------|-------------------|
A |-------|------------|-------------------|
E |-------|------------|-2-2-2-3-3-3-6-6-6-|
A |-3-3-3-|-5-3-2-(x5)-|-------------------|
    

D |-------|------------|-------------------|
A |-------|------------|-------------------|
E |-------|------------|-------------------|
A |-3-3-3-|-5-3-2-(x5)-|-2-2-2-3-3-3-6-6-6-|
    

verse pt.2
"He won't be able to hear where the screams are coming from..."
0:26

D |-------|-------------|-------------------|
A |-------|-------------|-------------------|
E |-------|-------------|-2-2-2-3-3-3-6-6-6-|
A |-2-3-5-|-5-3-2-(x11)-|-------------------|
   
D |-------------|-------|
A |-------------|-------|
E |-------------|-------|
A |-5-3-2-(x11)-|-6-2-3-|
   

Chorus
"Sewing the eyes shut of the man who saw God..."
D |----------------------------------------------------|
A |----------------------------------------------------|
E |-3-3-3-------------------3-3-3-------4-4-4----------|
A |-------3-1-0-3-1-0-3-1-0-------3-1-0-------3-1-0----|


Breakdown
"Go!"
"It's just an endless abyss..."
0:54

D |-----------------|-------|
A |-----------------|-------|
E |-----------------|---3---|
A |-5-0-1-4-0-1(x4)-|-0-----|
  

verse
"And he will wonder where the screams are coming from..."
1:12
D |-------|------------|-------------------|
A |-------|------------|-------------------|
E |-------|------------|-2-2-2-3-3-3-6-6-6-|
A |-3-3-3-|-5-3-2-(x5)-|-------------------|
   

D |-------|------------|-------------------|
A |-------|------------|-------------------|
E |-------|------------|-------------------|
A |-3-3-3-|-5-3-2-(x5)-|-2-2-2-3-3-3-6-6-6-| 

D |-------|-------------|-------------------|
A |-------|-------------|-------------------|
E |-------|-------------|-2-2-2-3-3-3-6-6-6-|
A |-2-3-5-|-5-3-2-(x11)-|-------------------|
   
D |-------------|-------|
A |-------------|-------|
E |-------------|-------|
A |-5-3-2-(x11)-|-6-2-3-|


Breakdown
"Because it's your fucking flock..."
1:38
D |-----------------|-------|
A |-----------------|-------|
E |-----------------|---3---|
A |-5-0-1-4-0-1(x4)-|-0-----|

Breakdown pt.2
"Because it's your fucking flock..."
1:48

D |-------------------------|
A |-------------------------|
E |-------------------------|
A |-5-5-5-0-0-0-1-1-1-4-4-4-|

Chorus
"Sewing the eyes shut of the man who saw God..."
2:14
D |----------------------------------------------------|
A |----------------------------------------------------|
E |-3-3-3-------------------3-3-3-------4-4-4----------|
A |-------3-1-0-3-1-0-3-1-0-------3-1-0-------3-1-0----|
        
Outro
"And as I torture and kill..."
2:27
D |-------|------------|-------------------|
A |-------|------------|-------------------|
E |-------|------------|-2-2-2-3-3-3-6-6-6-|
A |-3-3-3-|-5-3-2-(x5)-|-------------------|
   

D |-------|------------|-------------------|
A |-------|------------|-------------------|
E |-------|------------|-------------------|
A |-3-3-3-|-5-3-2-(x5)-|-2-2-2-3-3-3-6-6-6-|

Outro pt.2
"Followed him in his lies"
2:52

D |---------------|
A |---------------|
E |---------------|
A |-5-0-1-4-0-1-0-|

end


ok there you have it suicide silence's eyes sewn shut for the bass guitar. 
enjoy!!! please comment and rate!!!
Suggest correction
Give kudos to tab author, rate the tab!
1 2 3 4 5
comments
print report bad tab
guest
You may want to rate the tab now too:
select rating
Please do not post tabs as comments. Select "correction" instead!