Oops, an error
Loading. Please wait.

Eyes Sewn Shut Tab

version 1
version 1

Whole song

Interactive

9,098 views 3 this week
3 commentsread comments
1 2 3 4 5
excellent!
x 7
add to favorites
launch autoscroll
font size
0
reset
how to read this tab
guitar tuner
Tab Pro tools
  • play this tab
  • loop segment
  • change instrument
  • show fretboard
  • metronome
×
Best way to learn
"Eyes Sewn Shut"
Autoscroll
slow
fast
+/-
esc
set tempo
stop
Contributor
Difficulty
Tuning
intermediate
A E A D F# B
Okay, so this song is pretty sweet and has one of the sweetest breakdowns I have ever
They use seven string baritone guitars, but unfortunately many people, including myself,
these amazing instruments so I am tabbing this for a six string tuned down to their 
You can message me with any questions or leave them in the comments section, if you
a correction or
would like to tell me how much I suck, please feel free to do so. Cheers! :)

Tuned in Drop-A (A E A D F# B)

Suicide Silence - "Eyes Sewn Shut" from their album "The Cleansing" (2007)

Track 11

Approximately 2 min and 59 sec long

Legend:
. = palm mute
* = pinch harmonic
~ = vibrato
b = bend
r = return bend
h = hammer-on
p = pull-off
t = tap


Riff A (Intro/Chorus)
0:00
B |----------------------------------------------------|
F#|----------------------------------------------------|
D |----------------------------------------------------|
A |----------------------------------------------------|
E |-3-3-3-------------------3-3-3-------4-4-4----------|
A |-------3-1-0-3-1-0-3-1-0-------3-1-0-------3-1-0----|
          . . . . . . . . .       . . .       . . .

Riff B (verse)
"Sewing the eyes shut of the man who saw God..."
0:13
B |-------|------------|-------------------|
F#|-------|------------|-------------------|
D |-------|------------|-------------------|
A |-------|------------|-------------------|
E |-------|------------|-2-2-2-3-3-3-6-6-6-|
A |-3-3-3-|-5-3-2-(x5)-|-------------------|
    . . .   . . .
B |-------|------------|-------------------|
F#|-------|------------|-------------------|
D |-------|------------|-------------------|
A |-------|------------|-------------------|
E |-------|------------|-------------------|
A |-3-3-3-|-5-3-2-(x5)-|-2-2-2-3-3-3-6-6-6-|
    . . .   . . .

Riff C (verse pt.2)
"He won't be able to hear where the screams are coming from..."
0:26
B |-------|-------------|-------------------|
F#|-------|-------------|-------------------|
D |-------|-------------|-------------------|
A |-2-3-5-|-5-3-2-------|-------------------|
E |-2-3-5-|-5-3-2-------|-2-2-2-3-3-3-6-6-6-|
A |-2-3-5-|-5-3-2-(x11)-|-------------------|
    . . .   . . .
B |-------------|-------|
F#|-------------|-------|
D |-------------|-------|
A |-5-3-2-------|-6-2-3-|
E |-5-3-2-------|-6-2-3-|
A |-5-3-2-(x11)-|-6-2-3-|
    . . .         . . .

Repeat Riff A (Chorus)
"Sewing the eyes shut of the man who saw God..."

Riff D (Breakdown)
"Go!"
"It's just an endless abyss..."
0:54
B |-----------------|-------|
F#|-----------------|-------|
D |-----------------|-------|
A |-5-0-1-4-0-1-----|-0-----|
E |-5-0-1-4-0-1-----|-0-3*b-|
A |-5-0-1-4-0-1(x4)-|-0-----|
    . . . . . .       .

Repeat Riff B & C (verse)
"And he will wonder where the screams are coming from..."
1:12

Repeat Riff D (Breakdown)
"Because it's your fucking flock..."
1:38

Riff E (Breakdown pt.2)
"Because it's your fucking flock..."
1:48
B |-------------------------|
F#|-------------------------|
D |-------------------------|
A |-------------------------|
E |-------------------------|
A |-5-5-5-0-0-0-1-1-1-4-4-4-|

Riff A (Chorus)
"Sewing the eyes shut of the man who saw God..."
2:14

Riff B (Outro)
"And as I torture and kill..."
2:27

Riff F (Outro pt.2)
"Followed him in his lies"
2:52
B |---------------|
F#|---------------|
D |---------------|
A |-5-0-1-4-0-1-0-|
E |-5-0-1-4-0-1-0-|
A |-5-0-1-4-0-1-0-|

That's pretty much it, there's a few obvious parts I didn't really feel the need to add
other than that I think it's pretty close. Comment and rate if you feel like it, thanks guys!
comments
print report bad tab
3 comments total.
0 reply
Gytaryst wrote on June 30 2008, 10:21 pm

great can you tab bludgeoned or all of girl of glass

0 reply
MikeHuntAteIt wrote on July 4 2008, 11:41 am

hellzyeah i pretty much learned the whole cd by ear, i got the price of beauty on the way too

0 reply
botn9 wrote on February 6 2009, 04:20 pm

f***ing sweet tab man

I want to post or [tab]
guest
You may want to rate the tab now too:
select rating
Please do not post tabs as comments. Select "correction" instead!