Oops, an error
Loading. Please wait.

Fallen Tab

version 1
version 1

Whole song

Interactive

5,766 views 1 this week
2 commentsread comments
1 2 3 4 5
accurate
x 4
add to favorites
launch autoscroll
font size
0
reset
how to read this tab
guitar tuner
Tab Pro tools
  • play this tab
  • loop segment
  • change instrument
  • show fretboard
  • metronome
×
Best way to learn
"Fallen"
Autoscroll
slow
fast
+/-
esc
set tempo
stop
----------------------------------------------------------------------------
                             THE FALLEN - Suicide Silence
----------------------------------------------------------------------------
Tabbed by: ME

Tuning: AEADGbe (7-string Drop A) or 
        AEADGb (7-string Drop A on a 6-string) or
        AEADF#b (6-string Drop A)

MAIN RIFF
e|-----|-----------------|
b|-----|-----------------|
G|-----|-----------------|
D|-----|-----------------|
A|-----|-----------------|
E|-222-|-3-2-0-555-3-2TP-|
A|-----|-3-2-0-----3-----|
         . . .     .

VERSES 1A                     VERSES 1B
  GUITAR1
e|-----------------------------|-----------------------------|
b|-----------------------------|-----------------------------|
G|-----------------------------|-----------------------------|
D|-----------------------------|-----------------------------|
A|-----------------------------|-----------------------------|
E|----6---2/3------------------|----6---2/3------------------|
A|-00---0-----0000-6-0-2/3\2\0-|-00---0-----0000-6-0-2/3\2\0-|
 |GUITAR2 v(PALM MUTE THAT OPEN ON THE 2ND & 4TH TIMES ONLY)
e|-----------------------------|-----------------------------|
b|-----------------------------|-----------------------------|
G|-----------------------------|-----------------------------|
D|-----------------------------|-----------------------------|
A|-0~--------------------------|-----------------------------|
E|-0~--------------------------|----6---2/3------------------|
A|-0~------------------2/3\2\0-|-00---0-----0000-6-0-2/3\2\0-|
          4TH TIME ONLY^^^^^^^

VERSES 1C
  GUITAR1
e|-----------------------------|
b|-----------------------------|
G|-----------------------------|
D|-----------------------------|
A|-----------------------------|
E|----9---5/6------------------|
A|-00---0-----0000-6-0-2/3\2\0-|
 |GUITAR2
e|-----------------------------|
b|-----------------------------|
G|-----------------------------|
D|-----------------------------|
A|-----------------------------|
E|----6---2/3------------------|
A|-00---0-----0000-6-0-2/3\2\0-|

VARIATION OF THE MAIN RIFF (ON OCCASION)
e|---|---------------------------|
b|---|---------------------------|
G|---|---------------------------|
D|---|---------------------------|
A|-0-|---------------------------|
E|-0-|-3-2-0-----3-2-0-555-3-2TP-|
A|-0-|-3-2-0-----3-2-0-----3-----|
   .   . . .     . . .     .

BREAKDOWN/SOLO PART
  GUITAR1 (JUST STRUM THE NOTES SLOWLY BENDING THAT A STRING)
e|-----------------------------------|-----------------------------------|
b|-----------------------------------|-----------------------------------|
G|-----------------------------------|-----------------------------------|
D|-----------------------------------|-----------------------------------|
A|-10--------------------------------|--9--------------------------------|
E|-15--------------------------------|-14--------------------------------|
A|-----------------------------------|-----------------------------------|
 |GUITAR2
e|-----------------------------------|-----------------------------------|
b|-----------------------------------|-----------------------------------|
G|-----------------------------------|-----------------------------------|
D|-----------------------------------|-----------------------------------|
A|-----------------------------------|-----------------------------------|
E|-2/333-2/333-3333-2/333-2/333-3333-|-0/222-0/222-2222-0/222-0/222-2222-|
A|-2/333-2/333-3333-2/333-2/333-3333-|-0/222-0/222-2222-0/222-0/222-2222-|
   . ... . ... .... . ... . ... ....   . ... . ... .... . ... . ... ....

ENDING
e|-----------|
b|-----------|
G|-----------|
D|-4---------|
A|-4-------0-|
E|-2-3-2-3-0-|
A|---3-2-3-0-|
     . .

I'M NOT GONNA BOTHER PUTTING THE ORDER OR ANYTHING LIKE THAT SINCE THERE
ARE REALLY ONLY 3 MAIN RIFFS, WITH A VARIATION OR 2 OF EACH ONE. BESIDES,
IT'S NOT HARD TO FIGURE OUT THE ORDER

QUESTIONS AND/OR COMMENTS: myspace.com/ex_aye_aye_aye

'THE DISEASE' POSSIBLY COMING SOON

============================================================================
comments
print report bad tab
2 comments total.
-1 reply
botn9 wrote on February 7 2009, 04:08 pm

sick tab

0 reply
wild577mxracer wrote on February 10 2010, 10:24 am

Wow just about every riff is wrong.

I want to post or [tab]
guest
You may want to rate the tab now too:
select rating
Please do not post tabs as comments. Select "correction" instead!