Oops, an error
Loading. Please wait.

Fallen Tab

version 2
version 2

Whole song

Interactive

3,015 views 1 this week
1 commentread comment
1 2 3 4 5
excellent!
x 7
add to favorites
launch autoscroll
font size
0
reset
how to read this tab
guitar tuner
Autoscroll
slow
fast
+/-
esc
set tempo
stop
Help us to improve Ultimate-Guitar.com Take our survey!
×
Author
Difficulty
Tuning
intermediate
A E A D F# B
                      This was requested by 370 people
                        so im gonna give everyone a
                         great tab of The Fallen,
                           by Suicide Silence
                             Tuning-Drop A
                              Rate/Comment




Things to know,

h - Hammer on
p - Pull off
. - Silence note
~ - Let ring
/ - Slide
x - Times played




Intro Guitar 1
|-------------------------------|
|-------------------------------|
|-------------------------------|
|-------------------------------|  (x1)
|-------------------------------|
|--2-2-1-0--55---22222222-------|
|----2-1-0-----0----------------|

Guitar 1 and 2
|----------------------------------------------------|
|----------------------------------------------------|
|----------------------------------------------------|
|----------------------------------------------------|  (x4)
|----------------------------------------------------|
|--2-2-1-0--55---22222222--2-2-1-0--55---222222------|
|----2-1-0-----0-------------2-1-0-----0-------------|

Guitar 1
|----------------------------------------|
|----------------------------------------|
|----------------------------------------|
|----------------------------------------|  (x2)
|----------------------------------------|
|------6----3h4--------------------------|
|--0-0----0------0-0-6p0-4p0-3h4p3-0-----|

Guitar 2
|-------------|
|-------------|
|-------------|
|-------------|  (x1)
|--0~~--0.----|
|--0~~--0.----|
|--0~~--0.----|

Guitar 1
|----------------------------------------|
|----------------------------------------|
|----------------------------------------|
|----------------------------------------|  (x2)
|----------------------------------------|
|------6----3h4--------------------------|
|--0-0----0------0-0-6p0-4p0-3h4p3-0-----|

Guitar 2
|-------------|
|-------------|
|-------------|
|-------------|  (x1)
|--0~~--0.----|
|--0~~--0.----|
|--0~~--0.----|

Guitar 1 and 2
|----------------------------------------|
|----------------------------------------|
|----------------------------------------|
|----------------------------------------|  (x8)
|----------------------------------------|
|------6----3h4--------------------------|
|--0-0----0------0-0-6p0-4p0-3h4p3-0-----|

Guitar 1 and 2
|------------------------------------------------------|
|------------------------------------------------------|
|------------------------------------------------------|
|------------------------------------------------------|  (x4)
|------------------------------------------------------|
|--2-2-1-0--55---22222222--2-2-1-0--55---222222--------|
|----2-1-0-----0-------------2-1-0-----0---------------|

Guitar 1 and 2 - Breakdown
|-------------------------------------|
|-------------------------------------|
|-------------------------------------|
|-------------------------------------|  (x6)
|-------------------------------------|
|--2-2-1-0.--2-1-0--55---22222222-----|
|----2-1-0.--2-1-0-----0--------------|

Guitar 1
|-------------------------|
|-------------------------|
|-------------------------|
|-------------------------|  (x1)
|-------------------------|
|--2-1-0-2--5---222222----|
|--2-1-0-2----0-----------|

Guitar 2
|--------------------|
|--------------------|
|--------------------|
|--------------------|  (x1)
|--------------------|
|--2.--2-1-----------|
|--2.--2-1--17/------|

Guitar 1 and 2
|----------------------------------------|
|----------------------------------------|
|----------------------------------------|
|----------------------------------------|  (x4)
|----------------------------------------|
|------6----3h4--------------------------|
|--0-0----0------0-0-6p0-4p0-3h4p3-0-----|

Guitar 1
|----------------------------------------|
|----------------------------------------|
|----------------------------------------|
|----------------------------------------|  (x4)
|----------------------------------------|
|------9----6h7--------------------------|
|--0-0----0------0-0-6p0-4p0-3h4p3-0-----|

Guitar 2
|----------------------------------------|
|----------------------------------------|
|----------------------------------------|
|----------------------------------------|  (x4)
|----------------------------------------|
|------6----3h4--------------------------|
|--0-0----0------0-0-6p0-4p0-3h4p3-0-----|

Guitar 1
|-------------------------------------------------------|
|--8888888888888888888888--7777777777777777777777-------|
|-------------------------------------------------------|
|--5555555555555555555555--5555554444444444444444-------|  (x2) 
|-------------------------------------------------------|
|-------------------------------------------------------|
|-------------------------------------------------------|

Guitar 2
|----------------------------------------------------------------|
|----------------------------------------------------------------|
|----------------------------------------------------------------|
|----------------------------------------------------------------|  (x2)
|----------------------------------------------------------------|
|--33333-3333333--33333-3333333--22222-2222222--22222-2222222----|
|--33333-3333333--33333-3333333--22222-2222222--22222-2222222----|

Guitar 1 and 2
|------------------------------------------------------|
|------------------------------------------------------|
|------------------------------------------------------|
|------------------------------------------------------|  (x2)
|------------------------------------------------------|
|--2-2-1-0--55---22222222--2-2-1-0--55---222222--------|
|----2-1-0-----0-------------2-1-0-----0---------------|

Guitar 1 and 2
|-------------|
|-------------|
|-------------|
|-------------|  (x1)
|--0~~--0.----|
|--0~~--0.----|
|--0~~--0.----|

Guitar 1
|----------------------------------------|
|----------------------------------------|
|----------------------------------------|
|----------------------------------------|  (x1)
|----------------------------------------|
|------6----3h4--------------------------|
|--0-0----0------0-0-6p0-4p0-3h4p3-0-----|

Guitar 1 and 2
|----------------------------------------|
|----------------------------------------|
|----------------------------------------|
|----------------------------------------|  (x4)
|----------------------------------------|
|------6----3h4--------------------------|
|--0-0----0------0-0-6p0-4p0-3h4p3-0-----|

Guitar 1
|----------------------------------------|
|----------------------------------------|
|----------------------------------------|
|----------------------------------------|  (x4)
|----------------------------------------|
|------9----6h7--------------------------|
|--0-0----0------0-0-6p0-4p0-3h4p3-0-----|

Guitar 2
|----------------------------------------|
|----------------------------------------|
|----------------------------------------|
|----------------------------------------|  (x4)
|----------------------------------------|
|------6----3h4--------------------------|
|--0-0----0------0-0-6p0-4p0-3h4p3-0-----|

Guitar 1 and 2
|----------------------------------------------------|
|----------------------------------------------------|
|----------------------------------------------------|
|----------------------------------------------------|  (x4)
|----------------------------------------------------|
|--2-2-1-0--55---22222222--2-2-1-0--55---222222------|
|----2-1-0-----0-------------2-1-0-----0-------------|

Guitar 1
|-----------------------------------------------------|
|--8888888888888888888888--7777777777777777777777-----|
|-----------------------------------------------------|
|--5555555555555555555555--5555554444444444444444-----|  (x4) 
|-----------------------------------------------------|
|-----------------------------------------------------|
|-----------------------------------------------------|

Guitar 2
|-----------------------|
|-----------------------|
|-----------------------|
|-----------------------|  (x4)
|--3~--3~-6~--2~--2~----|
|--3~--2~-6~--2~--2~----|
|--3~--3~-6~--2~--2~----|

Guitar 1 and 2 - Breakdown
|-------------------------------------|
|-------------------------------------|
|-------------------------------------|
|-------------------------------------|  (x4)
|-------------------------------------|
|--2-2-1-0.--2-1-0--55---22222222-----|
|----2-1-0.--2-1-0-----0--------------|

Guitar 1
|-----------------------------------------------------|
|--8888888888888888888888--7777777777777777777777-----|
|-----------------------------------------------------|
|--5555555555555555555555--5555554444444444444444-----|  (x2) 
|-----------------------------------------------------|
|-----------------------------------------------------|
|-----------------------------------------------------|

Guitar 2
|----------------------------------------------------------------|
|----------------------------------------------------------------|
|----------------------------------------------------------------|
|----------------------------------------------------------------|  (x2)
|----------------------------------------------------------------|
|--33333-3333333--33333-3333333--22222-2222222--22222-2222222----|
|--33333-3333333--33333-3333333--22222-2222222--22222-2222222----|

Guitar 1 and 2 - Breakdown
|-------------------------------------|
|-------------------------------------|
|-------------------------------------|
|-------------------------------------|  (x4)
|-------------------------------------|
|--2-2-1-0.--2-1-0--55---22222222-----|
|----2-1-0.--2-1-0-----0--------------|

Guitar 1 Outro/End
|------------------|
|------------------|
|------------------|
|------------------|  (x1)
|--2-0-0--2-0.-----|
|--2-0-0--2-0.-----|
|--2-0-0--2-0.-----|

Guitar 2 Outro/End
|------------------|
|------------------|
|------------------|
|------------------|  (x1)
|--2.---2-0.-------|
|--2.---2-0.-------|
|--2.---2-0.-------|
Suggest correction
comments
print report bad tab
1 comment total.
0 reply
TheTrueBeast420 16 wrote on June 29 2010, 07:48 pm

the intro goes like this

--------------------------------
--------------------------------
--------------------------------
---3--2--0--------3-------------
22-3--2--0---5555-3-2222--------
---3--2--0--------3-------------

guest
You may want to rate the tab now too:
select rating
Wanna post a correction for this tab? Suggest correction