Oops, an error
Loading. Please wait.

Genocide Tab

version 1
version 1

Intro

Solo

Whole song

Interactive

5,734 views 21 this week
2 commentsread comments
1 2 3 4 5
excellent!
x 1
add to favorites
launch autoscroll
font size
0
reset
how to read this tab
guitar tuner
Tab Pro tools
  • play this tab
  • loop segment
  • change instrument
  • show fretboard
  • metronome
Autoscroll
slow
fast
+/-
esc
set tempo
stop
Contributor
Difficulty
Tuning
intermediate
A E A D F# B
-------------------------------------------------------------------------------
			   Genocide - Suicide Silence
-------------------------------------------------------------------------------
Tabbed by:Jaredh_d2012
Email:jaredh.d2012@gmail.com

Tuning:A,E,A,D,G,B,E

Guitar 1&2 Heavy Distortion

Intro
Guitar 1&2
e|---------------------------------|
B|---------------------------------|
G|---------------------------------|
D|--------7---7--------------------|
A|---------------------------------|
E|-00-0-0-5-0-5-0-00-0-0-1---------|
A|-00-0-0---0---0-00-0-0-1---------|

e|---------------------------------|
B|---------------------------------|
G|---------------------------------|
D|--------7---7--------------------|
A|---------------------------------|
E|-00-0-0-5-0-5-0-00-0-0-0--0-00---|
A|-00-0-0---0---0-00-0-0-0--0-00---|X4

Transition
e|-------------------------|
B|-------------------------|
G|-------------------------|
D|-------------------------|
A|-------------------------|
E|-4-1-1111--4-1-1111------|
A|-4-1-1111--4-1-1111------|

Verse
Guitar 1
e|------------------------------|
B|------------------------------|
G|------------------------------|
D|------------------------------|
A|------------------------------|
E|-0-2*-0-2*5*3*-0-2*-0-111-----|
A|-0----0--------0----0-111-----|
 |				|
e|------------------------------|
B|------------------------------|
G|------------------------------|
D|------------------------------|
A|------------------------------|
E|-0----0--------0----0-111-----|
A|-0----0--------0----0-111-----|X4
Guitar 2

Breakdown 1
Guitar 1&2
e|----------------------------------------------|
B|----------------------------------------------|
G|----------------------------------------------|
D|----------------------------------------------|
A|----------------------------------------------|
E|-00---0--00--0-0-0----00---0--00--0-0-0-------|
A|-11---1--11--1-1-1----11---1--11--1-1-1-------|


Transition into Slide riff
Guitar 1
e|------------------------------------------------------|
B|------------------------------------------------------|
G|------------------------------------------------------|
D|------------------------------------------------------|
A|------------------------------------------------------|
E|-\555-2--------\555-2-----------\555-2-222------------|
A|-\555-2--------\555-2-----------\555-2-222------------|
 |							|
e|------------------------------------------------------|
B|------------------------------------------------------|
G|------------------------------------------------------|
D|------------------------------------------------------|
A|------------------------------------------------------|
E|--------\444-1---------\444-1----------222------------|
A|--------\444-1---------\444-1----------222------------|
Guitar 2

Guitar 1&2 Verse 2 Not to sure about these, try reversing the triplets to the 2nd and 1st frets.
e|-------------------------------------------------------------|
B|-------------------------------------------------------------|
G|-------------------------------------------------------------|
D|-------------------------------------------------------------|
A|-------------------------------------------------------------|
E|-\555-2-444-1--\555-2-444-1--\555-2-444-1--\555-2-444-1------|
A|-\555-2-444-1--\555-2-444-1--\555-2-444-1--\555-2-444-1------|X2



Guitar 1&2 Play around with this too
e|-------------------------------------------------|
B|-------------------------------------------------|
G|-------------------------------------------------|
D|-------------------------------------------------|X4
A|------454----454252------------------------------|
E|-0000----0000-------0000-00-0--------------------|Also
A|-0000----0000-------0000-00-0--------------------|Played behind solo for 4 times


Solo
E|----------------------------------------|
B|----------4h7-4~----------4h7-4---------|
G|--------5---------------5--------3~-----|
D|------5---------------5-----------------|
A|----6---------------6-------------------|
E|--8---------------8---------------------|
A|----------------------------------------|X2

E|---------------------------------|
B|--------4/7h10p7----10h13p10-----|
G|------5----------------------12--|
D|----5----------------------------|
A|--6------------------------------|
E|8--------------------------------|
A|---------------------------------|


E|-1212-8-7-1414-8-7-1515-11-10-1616-11-10---18--17--17-18-17-15-17-15--14b--|
B|---------------------------------------------------------------------------|
G|---------------------------------------------------------------------------|
D|---------------------------------------------------------------------------|
A|---------------------------------------------------------------------------|
E|---------------------------------------------------------------------------|
A|---------------------------------------------------------------------------|



Transition #3

Guitar 1
e|------------------------------|
B|------------------------------|
G|------------------------------|
D|------------------------------|
A|------------------------------|
E|-0-2*-0-2*5*3*-0-2*-0-111-----|
A|-0----0--------0----0-111-----|
 |				|
e|------------------------------|
B|------------------------------|
G|------------------------------|
D|------------------------------|
A|------------------------------|
E|-0----0-----0--0----0-111-----|
A|-0----0-----0--0----0-111-----|

Breakdown #2
Guitar 1&2
e|----------------------------------------------|
B|----------------------------------------------|
G|----------------------------------------------|
D|----------------------------------------------|
A|----------------------------------------------|
E|-00---0--00--0-0-0----00---0--00--0-0-0-------|
A|-11---1--11--1-1-1----11---1--11--1-1-1-------|Repeat until end

Last time played be very percussive with the strumming.



************************************
| *   Trem Pick
| /   slide up
| \   slide down
| h   hammer-on
| p   pull-off
| ~   vibrato
| +   harmonic
| x   Mute note
| b   Bend
| pb  Pre-bend
| br  Bend release
| pbr Pre-bend release
| brb Bend release bend

************************************
comments
We did not receive enough feedback on this tab! Please rate:
print report bad tab
1 2 3 4 5
2 comments total.
0 reply
henrik.schoeb wrote on February 18 2014, 01:30 pm, edited at 01:31 pm

222 222666333 222 -E
0 0 0 0143 -A (pm) sorry, but that is it!

0 reply
henrik.schoeb wrote on February 18 2014, 01:33 pm

**** this
the '0' belongs where the gap is, 0143 is right after the '222' and it is not 111!!!!!! listen carefully and u will notice it

I want to post or [tab]
guest
You may want to rate the tab now too:
select rating
Please do not post tabs as comments. Select "correction" instead!