Oops, an error
Loading. Please wait.

Green Monster Tab

version 1
version 1

Whole song

Interactive

6,403 views 3 this week
7 commentsread comments
1 2 3 4 5
worth learning
x 6
add to favorites
launch autoscroll
font size
0
reset
how to read this tab
guitar tuner
Tab Pro tools
  • play this tab
  • loop segment
  • change instrument
  • show fretboard
  • metronome
×
Best way to learn
"Green Monster"
Autoscroll
slow
fast
+/-
esc
set tempo
stop
Contributor
Difficulty
intermediate
SuicideSilence–GreenMonster–TheCleansing

Tabbed by joepro(joeprox27b@yahoo.com)
Tuning:7string tuned low to high(ADGCFad)

KEY:x=palm mute
    ^= gohst note

Intro:0:00
|------------------|
|------------------|
|------------------|
|------------------|
|---------------2^-|
|-5-1-3-1-5-1-3----|
|-5-1-3-1-5-1-3----|


|-----------------------------------------------------|
|-----------------------------------------------------|
|-----------------------------------------------------|
|-----------------------------------------------------|
|-----------------------------------------------------|
|---------3---------3-----3--4444–3333–4444–7777–3333-|
|-2–3–2–3---2–3-2–3---2–3-----------------------------|
  x x x x   x x x x   x x
0:08
|-----------------------------------------------------|
|-----------------------------------------------------|
|-----------------------------------------------------|
|-----------------------------------------------------|
|-----------------------------------------------------|
|---------3---------3-----3--4444–3333–4444-----------|
|-2–3–2–3---2–3-2–3---2–3-------------------3333–2222-|
  x x x x   x x x x   x x


|----------------------------|
|----------------------------|
|----------------------------|
|----------------------------|
|----------------------------|
|---------3---------3-----3--|
|-2–3–2–3---2–3-2–3---2–3----|
  x x x x   x x x x   x x



|-----------------------------------------------------|
|-----------------------------------------------------|
|-----------------------------------------------------|
|-----------------------------------------------------|
|-----------------------------------------------------|
|---------3---------3-----3--4444–3333–4444–7777–3333-|
|-2–3–2–3---2–3-2–3---2–3-----------------------------|
  x x x x   x x x x   x x

|----------------------------|
|----------------------------|
|----------------------------|
|----------------------------|
|----------------------------|
|---------3---------3-----3--|
|-2–3–2–3---2–3-2–3---2–3----|
  x x x x   x x x x   x x


|-----------------------------------------------------|
|-----------------------------------------------------|
|-----------------------------------------------------|
|-----------------------------------------------------|
|-----------------------------------------------------|
|---------3---------3-----3--4444–3333–4444-----------|
|-2–3–2–3---2–3-2–3---2–3-------------------3333–2222-|
  x x x x   x x x x   x x
0:25
|------------------------|
|------------------------|
|------------------------|
|------------------------|
|-------------2^---------|
|-5--1--3--1-----1--3--1-|
|-5--1--3--1-----1--3--1-|
  x  x  x  x     x  x  x

|------------------------|x3
|------------------------|
|------------------------|
|------------------------|
|------------------------|
|-5--1--3--1-----1--3--1-|
|-5--1--3--1-----1--3--1-|
  x  x  x  x     x  x  x

|--------------|
|--------------|
|--------------|
|--------------|
|--------------|
|-5--1--3--1-1-|
|-5--1--3--1-1-|
  x  x  x  x x
0:46
|------------------------------------------|x4
|------------------------------------------|
|------------------------------------------|
|------------------------------------------|
|------------------------------------------|
|-0–4444–0–3333–4///////9--3–1–0–1–3–1–0–1-|
|--------------------------3–1–0–1–3–1–0–1-|
                           x x x x x x x x
1:04
|-------------------------|
|-------------------------|
|-------------------------|
|-------------------------|
|-------------------------|
|-0–4444–0–3333–4///////9-|
|-------------------------|


|---------------------------------------|x3
|---------------------------------------|
|---------------------------------------|
|---------------------------------------|
|---------------------------------------|
|-0–4444–0–3333-0–4444–0–3333–4///////9-|
|---------------------------------------|

1:17
|------------------------|
|------------------------|
|------------------------|
|------------------------|
|------------------------|
|-0–4444–0–3333--0–3–0–1-|
|----------------0–3–0–1-|



|-------------------------|
|-------------------------|
|-------------------------|
|-------------------------|
|-------------------------|
|-0–4444–0–3333–4///////9-|
|-------------------------|


|---------------------------------------|
|---------------------------------------|
|---------------------------------------|
|---------------------------------------|
|---------------------------------------|
|-0–4444–0–3333-0–4444–0–3333–4///////9-|
|---------------------------------------|


|---------------|
|---------------|
|---------------|
|---------------|
|---------------|
|-0–4444–0–3333-|
|---------------|

1:23
|------------------------|x3
|------------------------|
|------------------------|
|------------------------|
|------------------------|
|-3---1-1---0-0--3-3–1-1-|
|-3---1-1---0-0--3-3–1-1-|
  x   x x   x x  x x x x

|---------------------|
|---------------------|
|---------------------|
|---------------------|
|---------------------|
|-3---1-1---0-0--3–1--|
|-3---1-1---0-0--3–1--|
  x   x x   x x  x x 


1:35
|-------------------|
|-------------------|
|-------------------|
|-------------------|
|-------------------|
|-0---00---00–00–00-|
|-0---00---00–00–00-|
  x   xx   xx xx xx

|--------------------|
|--------------------|
|--------------------|
|--------------------|
|--------------------|
|-00---00---00–00–00-|
|-00---00---00–00–00-|
  xx   xx   xx xx xx

|-------------------|
|-------------------|
|-------------------|
|-------------------|
|-------------------|
|-0---00---00–00–00-|
|-0---00---00–00–00-|
  x   xx   xx xx xx

|---------------------|
|---------------------|
|---------------------|
|---------------------|
|---------------------|
|-0---00---00–00–00–0-|
|-0---00---00–00–00–0-|
  x   xx   xx xx xx x
1:47
|---------------------|x11
|---------------------|
|---------------------|
|---------------------|
|---------------------|
|-3–1--3–1--3-4-5-4-3-|
|-3–1--3–1------------|
 [--------]–palm mute at certain times

2:12
|---|
|---|
|---|
|---|
|---|
|-1-|
|-1-|
  x

2:13
|------------------------------------------|x4
|------------------------------------------|
|------------------------------------------|
|------------------------------------------|
|------------------------------------------|
|-0–4444–0–3333–4///////9--3–1–0–1–3–1–0–1-|
|--------------------------3–1–0–1–3–1–0–1-|
                           x x x x x x x x
2:32
|-----------------|
|-----------------|
|-----------------|
|-----------------|
|-----------------|
|-3–1–0–1–3–1–0–1-|
|-3–1–0–1–3–1–0–1-|

2:34
|---------------|
|---------------|
|---------------|
|---------------|
|---------------|
|---------3-----|
|-2–3–2–3---2–3-|
  x x x x   x x

|-----------------------------------------------------|
|-----------------------------------------------------|
|-----------------------------------------------------|
|-----------------------------------------------------|
|-----------------------------------------------------|
|---------3---------3-----3--4444–3333–4444–7777–3333-|
|-2–3–2–3---2–3-2–3---2–3-----------------------------|
  x x x x   x x x x   x x

|-----------------------------------------------------|
|-----------------------------------------------------|
|-----------------------------------------------------|
|-----------------------------------------------------|
|-----------------------------------------------------|
|---------3---------3-----3--4444–3333–4444-----------|
|-2–3–2–3---2–3-2–3---2–3-------------------3333–2222-|
  x x x x   x x x x   x x


|----------------------------|
|----------------------------|
|----------------------------|
|----------------------------|
|----------------------------|
|---------3---------3-----3--|
|-2–3–2–3---2–3-2–3---2–3----|
  x x x x   x x x x   x x



|-----------------------------------------------------|
|-----------------------------------------------------|
|-----------------------------------------------------|
|-----------------------------------------------------|
|-----------------------------------------------------|
|---------3---------3-----3--4444–3333–4444–7777–3333-|
|-2–3–2–3---2–3-2–3---2–3-----------------------------|
  x x x x   x x x x   x x

|----------------------------|
|----------------------------|
|----------------------------|
|----------------------------|
|----------------------------|
|---------3---------3-----3--|
|-2–3–2–3---2–3-2–3---2–3----|
  x x x x   x x x x   x x

|-----------------------------------------------------|
|-----------------------------------------------------|
|-----------------------------------------------------|
|-----------------------------------------------------|
|-----------------------------------------------------|
|---------3---------3-----3--4444–3333–4444-----------|
|-2–3–2–3---2–3-2–3---2–3-------------------3333–2222-|
  x x x x   x x x x   x x
2:56
|-------------------------|
|-------------------------|
|-------------------------|
|-------------------------|
|-------------------------|
|-0–4444–0–3333–4///////9-|
|-------------------------|


|---------------------------------------|
|---------------------------------------|
|---------------------------------------|
|---------------------------------------|
|---------------------------------------|
|-0–4444–0–3333-0–4444–0–3333–4///////9-|
|---------------------------------------|


|---------------|
|---------------|
|---------------|
|---------------|
|---------------|
|-0–4444–0–3333-|
|---------------|

3:03
|------------------------|x3
|------------------------|
|------------------------|
|------------------------|
|------------------------|
|-3---1-1---0-0--3-3–1-1-|
|-3---1-1---0-0--3-3–1-1-|
  x   x x   x x  x x x x


|-----------------------|
|-----------------------|
|-----------------------|
|-----------------------|
|-----------------------|
|-3---1-1---0-0--3-3–1--|
|-3---1-1---0-0--3-3–1--|
  x   x x   x x  x x x
3:16
|--------------------|x3
|--------------------|
|--------------------|
|--------------------|
|--------------------|
|-00---00---00–00–00-|
|-00---00---00–00–00-|
  xx   xx   xx xx xx


|------------------|
|------------------|
|------------------|
|------------------|
|------------------|
|-00---00---00–0–0-|
|-00---00---00–0–0-|
  xx   xx   xx x x
3:27
|--------------------|x4
|--------------------|
|--------------------|
|--------------------|
|--------------------|
|-00--00--00--00--00-|
|-00--00--00--00--00-|
  xx  xx  xx  xx  xx

some pick scrapes and feedback throughout the rest of the song.

Sounds almost perfect. Write comments!
comments
print report bad tab
7 comments total. Showing first comments.
0 reply
kazra90 wrote on June 13 2008, 08:49 pm

they use AEADGBE tuning

0 reply
joeprox27b wrote on July 12 2008, 03:52 pm

my mistake, on the seventh string all the 3's should be 2's.

0 reply
joeprox27b wrote on September 2 2008, 11:17 pm

all the single notes on the sixth string should be 1 fret higher due to the tuning error. sorry about that this is my first tab.

I want to post or [tab]
guest
You may want to rate the tab now too:
select rating
Please do not post tabs as comments. Select "correction" instead!