Oops, an error
Loading. Please wait.

Hands Of A Killer bass

version 1
version 1

Whole song

Interactive

2,312 views 1 this week
no commentswrite comment
1 2 3 4 5
3 more votes to show rating
add to favorites
×
Save as Personal and add changes to this tab that will be seen only by you. Learn more ›
×
You can save this tab as Personal to edit and correct it or add notes. All changes will be seen only by you. Learn more »
launch autoscroll
font size
0
reset
guitar tuner
edit
Autoscroll
slow
fast
+/-
esc
set tempo
stop
+++++++++++++++++++++++++++++++++++
|Suicide Silence-Hands Of a Killer|
+++++++++++++++++++++++++++++++++++

Tuning:Drop A (AEAD)

long guitar and drum intro
D|-------------------------------------------------------------------------|
A|-------------------------------------------------------------------------|
E|-------------------------------------------------------------------------|
A|-------------------------------------------------------------------------|

|-------------------------|-------------------------|
|-------------------------|-------------------------|
|-5-----------2-----------|-5-----------2-----------|
|---3-2-3-2-3---3-2-3-2-3-|---3-2-3-2-3---3-2-3-2-3-|

|-------------------------|-------------------------|
|-------------------------|-------------------------|
|-5-----------2-----------|-5-----------2-----------|
|---3-2-3-2-3---3-2-3-2-3-|---3-2-3-2-3---3-2-3-2-3-|

|-------------------------|-------------------------|
|-------------------------|-------------------------|
|-5-----------2-----------|-5-----------2-----------|
|---3-2-3-2-3---3-2-3-2-3-|---3-2-3-2-3---3-2-3-2-3-|

|-------------------------|-------------------------|
|-------------------------|-------------------------|
|-5-----------2-----------|-5-----------2-----------|
|---3-2-3-2-3---3-2-3-2-3-|---3-2-3-2-3---3-2-3-2-3-|

|-------------------------|-------------------------|
|-------------------------|-------------------------|
|-5-----------2-----------|-5-----------2-----------|
|---3-2-3-2-3---3-2-3-2-3-|---3-2-3-2-3---3-2-3-2-3-|

|-------------------------|---------------------------|
|-------------------------|---------------------------|
|-5-----------2-----------|-5-----------2-------------|
|---3-2-3-2-3---3-2-3-2-3-|---3-2-3-2-3---3-2-3-2-3-1-|

everything pauses and the bass does a slide
|-----|
|-----|
|-----|
|-15\-|

|-------------------------|-------------------------|
|-------------------------|-------------------------|
|-5-----------2-----------|-5-----------2-----------|
|---3-2-3-2-3---3-2-3-2-3-|---3-2-3-2-3---3-2-3-2-3-|

|-------------------------|-------------------------|
|-------------------------|-------------------------|
|-5-----------2-----------|-5-----------2-----------|
|---3-2-3-2-3---3-2-3-2-3-|---3-2-3-2-3---3-2-3-2-3-|

|-------------------------|-------------------------|
|-------------------------|-------------------------|
|-5-----------2-----------|-5-----------2-----------|
|---3-2-3-2-3---3-2-3-2-3-|---3-2-3-2-3---3-2-3-2-3-|

|-------------------------|-------------------------|
|-------------------------|-------------------------|
|-5-----------2-----------|-5-----------2-----------|
|---3-2-3-2-3---3-2-3-2-3-|---3-2-3-2-3---3-2-3-2-3-|

|-------|
|-------|
|-------|
|-11111-|

tremelo picking or really fast picking
|----------------------------------------------------------------|
|----------------------------------------------------------------|
|-5555------------5555------------5555------------5555-----------|
|------2222-3333-------2222-3333-------2222-3333-------2222-3333-|

|--------------------------------------------------------|
|--------------------------------------------------------|
|-5555------------5555------------5555-----------2h3-----|
|------2222-3333-------2222-3333-------2222-3333-----0-1-|

|----------------------------------------------------------------|
|----------------------------------------------------------------|
|-5555------------5555------------5555------------5555-----------|
|------2222-3333-------2222-3333-------2222-3333-------2222-3333-|

|--------------------------------------------------------|
|--------------------------------------------------------|
|-5555------------5555------------5555-----------2h3-----|
|------2222-3333-------2222-3333-------2222-3333-----0-1-|

|---------------------------------------------------|
|---------------------------------------------------|
|-------------------------------------------2h3-----|
|-0x-0x-0x-0x-0x-0x-0x-0x-0x-0x-0x-0x-0x-0x-----0-1-|

|---------------------------------------------------|
|---------------------------------------------------|
|-------------------------------------------2h3-----|
|-0x-0x-0x-0x-0x-0x-0x-0x-0x-0x-0x-0x-0x-0x-----0-1-|

|-------------------------|-------------------------|
|-------------------------|-------------------------|
|-5-----------2-----------|-5-----------2-----------|
|---3-2-3-2-3---3-2-3-2-3-|---3-2-3-2-3---3-2-3-2-3-|

|-------------------------|-------------------------|
|-------------------------|-------------------------|
|-5-----------2-----------|-5-----------2-----------|
|---3-2-3-2-3---3-2-3-2-3-|---3-2-3-2-3---3-2-3-2-3-|

|-------------------------|-------------------------|
|-------------------------|-------------------------|
|-5-----------2-----------|-5-----------2-----------|
|---3-2-3-2-3---3-2-3-2-3-|---3-2-3-2-3---3-2-3-2-3-|

|-------------------------|---------------------------|
|-------------------------|---------------------------|
|-5-----------2-----------|-5-----------2-------------|
|---3-2-3-2-3---3-2-3-2-3-|---3-2-3-2-3---3-2-3-2-3-1-|

|---------------------------------------------------------------|
|---------------------------------------------------------------|
|---------------------------------------------------------------|
|-0/22222-0/22222-0/22222-0/22222-0/22222-0/22222-0/22222-2-1-3-|

|---------------------------------------------------------------|
|---------------------------------------------------------------|
|---------------------------------------------------------------|
|-0/22222-0/22222-0/22222-0/22222-0/22222-0/22222-0/22222-2-1-3-|

|-------------------------------|-------------------------------|
|-------------------------------|-------------------------------|
|-------------------------------|-------------------------------|
|-0/22222-0/22222-0/22222-2-1-3-|-0/22222-0/22222-0/22222-2-1-3-|

|-------------------------------|
|-------------------------------|
|-------------------------------|
|-0/22222-0/22222-0/22222-2-1-3-|

|---------------------------------------------|
|---------------------------------------------|
|---------------------------------------------|
|-0/22222-0/22222-0/22222-2-1-3--2-1-3--0-1-0-|

|---------------------|---------------------|
|---------------------|---------------------|
|---------------------|---------------------|
|-2-1-3--2-1-3--0-1-0-|-2-1-3--2-1-3--0-1-0-|

|---------------------|---------------------|
|---------------------|---------------------|
|---------------------|---------------------|
|-2-1-3--2-1-3--0-1-0-|-2-1-3--2-1-3--11111-|

|---------------------------------------------------|
|---------------------------------------------------|
|-------------------------------------------2h3-----|
|-0x-0x-0x-0x-0x-0x-0x-0x-0x-0x-0x-0x-0x-0x-----0-1-|

|---------------------------------------------------|
|---------------------------------------------------|
|-------------------------------------------2h3-----|
|-0x-0x-0x-0x-0x-0x-0x-0x-0x-0x-0x-0x-0x-0x-----0-1-|

|-------------------------|-------------------------|
|-------------------------|-------------------------|
|-5-----------2-----------|-5-----------2-----------|
|---3-2-3-2-3---3-2-3-2-3-|---3-2-3-2-3---3-2-3-2-3-|

|-------------------------|-------------------------|
|-------------------------|-------------------------|
|-5-----------2-----------|-5-----------2-----------|
|---3-2-3-2-3---3-2-3-2-3-|---3-2-3-2-3---3-2-3-2-3-|

|-------------------------|-------------------------|
|-------------------------|-------------------------|
|-5-----------2-----------|-5-----------2-----------|
|---3-2-3-2-3---3-2-3-2-3-|---3-2-3-2-3---3-2-3-2-3-|

|-------------------------|---------------------------|
|-------------------------|---------------------------|
|-5-----------2-----------|-5-----------2-------------|
|---3-2-3-2-3---3-2-3-2-3-|---3-2-3-2-3---3-2-3-2-3-1-|

|-------------------------------|-------------------------------|
|-------------------------------|-------------------------------|
|-------------------------------|-------------------------------|
|-0/22222-0/22222-0/22222-2-1-3-|-0/22222-0/22222-0/22222-2-1-3-|

|-------------------------------|-------------------------------|
|-------------------------------|-------------------------------|
|-------------------------------|-------------------------------|
|-0/22222-0/22222-0/22222-2-1-3-|-0/22222-0/22222-0/22222-2-1-3-|

|-------------------------------|-------------------------------|
|-------------------------------|-------------------------------|
|-------------------------------|-------------------------------|
|-0/22222-0/22222-0/22222-2-1-3-|-0/22222-0/22222-0/22222-2-1-3-|

|-------------------------------|-------------------------------|
|-------------------------------|-------------------------------|
|-------------------------------|-------------------------------|
|-0/22222-0/22222-0/22222-2-1-3-|-0/22222-0/22222-0/22222-2-1-3-|

|---------------------------------------------------|
|---------------------------------------------------|
|-------------------------------------------2h3-----|
|-0x-0x-0x-0x-0x-0x-0x-0x-0x-0x-0x-0x-0x-0x-----0-1-|

|---------------------------------------------------|
|---------------------------------------------------|
|-------------------------------------------2h3-----|
|-0x-0x-0x-0x-0x-0x-0x-0x-0x-0x-0x-0x-0x-0x-----0-1-|

another long drum and guitar intro
|--------------------------------------------------------------------------|
|--------------------------------------------------------------------------|
|--------------------------------------------------------------------------|
|--------------------------------------------------------------------------|

|-------------------------|-------------------------|
|-------------------------|-------------------------|
|-5-----------2-----------|-5-----------2-----------|
|---3-2-3-2-3---3-2-3-2-3-|---3-2-3-2-3---3-2-3-2-3-|

|-------------------------|-------------------------|
|-------------------------|-------------------------|
|-5-----------2-----------|-5-----------2-----------|
|---3-2-3-2-3---3-2-3-2-3-|---3-2-3-2-3---3-2-3-2-3-|

|-------------------------|-------------------------|
|-------------------------|-------------------------|
|-5-----------2-----------|-5-----------2-----------|
|---3-2-3-2-3---3-2-3-2-3-|---3-2-3-2-3---3-2-3-2-3-|

|-------------------------|-------------------------|
|-------------------------|-------------------------|
|-5-----------2-----------|-5-----------2-----------|
|---3-2-3-2-3---3-2-3-2-3-|---3-2-3-2-3---3-2-3-2-3-|

|-------------------------|-------------------------|
|-------------------------|-------------------------|
|-5-----------2-----------|-5-----------2-----------|
|---3-2-3-2-3---3-2-3-2-3-|---3-2-3-2-3---3-2-3-2-3-|

|-------------------------|---------------------------|
|-------------------------|---------------------------|
|-5-----------2-----------|-5-----------2-------------|
|---3-2-3-2-3---3-2-3-2-3-|---3-2-3-2-3---3-2-3-2-3-1-|

|--------------|
|--------------|
|--------------|
|-2-1-3--2-1-3-|

|---------------------|---------------------|
|---------------------|---------------------|
|---------------------|---------------------|
|-2-1-3--2-1-3--0-1-0-|-2-1-3--2-1-3--0-1-0-|

|---------------------|--------------|
|---------------------|--------------|
|---------------------|--------------|
|-2-1-3--2-1-3--0-1-0-|-2-1-3--2-1-3-|

|-----------------------------|
|-----------------------------|
|-------2222------------------|
|-11111------2222-1111--11111-|

Hands Of a Killer
Lyrics:

A f--king murderous son of a gun,

Look down at your hands,
Look what you have done,
You've taken the life of your own son,
You've taken the life of your own son,

You've got the hands of a killer just like me,
You've got the hands of a killer just like me,

The lowest form of human life,
The lowest form of human life,
This world breeds killers just like you and me,
This world breeds killers just like you and me,

So look down at your hands now,
How does it feel to take a life,

And yes they'll be more of your families dead by tomorrow,
And yes they'll be more of your families dead by tomorrow,

So rip these hands away from me,
Rip these hands from my sleeve,
So take these hands away from me,
Please take these hands from my sleeve,

This is what we do and have done forever,
This is what we do and have done forever,
More of your families,
Dead by tomorrow,
More of your famileis,
Dead by tomorrow.

___________________________________________________________________

I'm done, Please comment and rate..corrections are welcome!

+++++++
|Enjoy|
+++++++

            
            
Suggest correction
Creating personal tab
Creating personal tab
You can edit any tab online and save it as your Personal.

You can edit, replace or remove any tab part or add personal notes – all changes will be seen only by you.

Personal tabs can be accessed anytime from any device, even offline.
Learn more »
Give kudos to tab author, rate the tab!
1 2 3 4 5
comments
print report bad tab
guest
You may want to rate the tab now too:
select rating
Wanna post a correction for this tab? Suggest correction