Oops, an error
Loading. Please wait.

Hands Of A Killer Tab

version 1
version 1

Whole song

Interactive

14,715 views 12 this week
7 commentsread comments
1 2 3 4 5
worth learning
x 9
add to favorites
launch autoscroll
font size
0
reset
how to read this tab
guitar tuner
Autoscroll
slow
fast
+/-
esc
set tempo
stop
Help us to improve Ultimate-Guitar.com Take our survey!
×
Author
Difficulty
novice
all credit goes too Deathmetal080
he made the guitar pro version
i'm just tabbing it out for the unfortunate. 

Drop A Tuning (from low to high) A E A D F# B

B|---------------------------------|
F#|--------------------------------|
D|---------------------------------|
A|---------------------------------|you must repeat this alot.
E|-----5--------------2------------|
A|---------3-2-3-2-3------3-2-3-2-3|                 


B|---------------------------------|
F#|--------------------------------|
D|---------------------------------|
A|-0-------------------------------|
E|-0-------------------------------|
A|-0-------------------------------|
   *


B|---------------------------------|
F#|--------------------------------|
D|---------------------------------|
A|---------------------------------|
E|-----5--------------2------------|
A|---------3-2-3-2-3------3-2-3-2-3|                 


B|---------------------------------|
F#|--------------------------------|
D|---------------------------------|
A|--1-1-1--------------------------|
E|--1-1-1--------------------------|
A|--1-1-1--------------------------|


B|---------------------------------|
F#|--------------------------------|
D|---------------------------------|
A|---------------------------------|
E|---5555--------------- ----------|
A|----------2222-3333--------------| repeat this then listen carefully for


B|---------------------------------|
F#|--------------------------------|
D|---------------------------------|  then go back to the riff above
A|---------------------------------|  listen carefully again and repeat this 
E|---2h3--0-1----------------------|  riff. i think it's a hammer
A|--------0-1----------------------|  <----


B|---------------------------------|
F#|--------------------------------|
D|---------------------------------|
A|---------------------------------|  repeat that
E|--0-0--9*---0-0--7*--------------|
A|--0-0-------0-0------------------|


B|---------------------------------|
F#|--------------------------------|
D|---------------------------------| same as the intro
A|---------------------------------|
E|-----5--------------2------------|
A|---------3-2-3-2-3------3-2-3-2-3|  



B|------------------------------------|
F#|-----------------------------------|      
D|------------------------------------|       
A|------------------------------------|      
E|-------------------------2-1-3------|
A|----0/-2-2-2-2-2(7x)-----2-1-3------|(2x)



B|------------------------------------|
F#|-----------------------------------|      
D|------------------------------------|       
A|------------------------------------|      
E|-------------------------2-1-3------|
A|----0/-2-2-2-2-2(3x)-----2-1-3------| (3x)



B|----------------------------------------------|
F#|---------------------------------------------|      
D|----------------------------------------------|       
A|----------------------------------------------|      
E|-------------------------2-1-3--2-1-3--0-1-0--|
A|----0/-2-2-2-2-2(3x)-----2-1-3--2-1-3--0-1-0--|


B|----------------------------------------------|
F#|---------------------------------------------|      
D|----------------------------------------------|   BREAKDOWN    
A|----------------------------------------------|      
E|2-1-3--2-1-3--0-1-0---------------------------|
A|2-1-3--2-1-3--0-1-0---------------------------|


B|---------------------------------|
F#|--------------------------------|
D|---------------------------------|
A|---------------------------------|  keep repeatin'.
E|--0-0--9*---0-0--7*--------------|
A|--0-0-------0-0------------------|



B|---------------------------------|
F#|--------------------------------|
D|---------------------------------|
A|---------------------------------|
E|-----5--------------2------------|
A|---------3-2-3-2-3------3-2-3-2-3|   


B|---------------------------------|
F#|--------------------------------|
D|---------------------------------|
A|-0-------------------------------|
E|-0-------------------------------|
A|-0-------------------------------|
   *


B|------------------------------------|
F#|-----------------------------------|      
D|------------------------------------|       
A|------------------------------------|      
E|-------------------------2-1-3------|
A|----0/-2-2-2-2-2(3x)-----2-1-3------|(8x)



B|---------------------------------|
F#|--------------------------------|
D|---------------------------------|
A|---------------------------------|  keep repeatin'
E|--0-0--9*---0-0--7*--------------|
A|--0-0-------0-0------------------|



B|---------------------------------|
F#|--------------------------------|
D|---------------------------------|
A|---------------------------------|
E|-----5--------------2------------|
A|---------3-2-3-2-3------3-2-3-2-3|   

             Ending breakdown.

B|-----------------------------------------|
F#|----------------------------------------|      
D|-----------------------------------------|     
A|-----------------------------------------|      
E|2-1-3--2-1-3-----------------------------|
A|2-1-3--2-1-3-----------------------------|


B|----------------------------------------------|
F#|---------------------------------------------|      
D|----------------------------------------------|     
A|----------------------------------------------|      
E|2-1-3--2-1-3--0-1-0---------------------------|
A|2-1-3--2-1-3--0-1-0---------------------------|(3x)



B|---------------------------------|
F#|--------------------------------|
D|---------------------------------|
A|---------------------------------|      repeat twice?
E|----2222-------------------------|
A|----------2222--1111-------------|
Suggest correction
comments
print report bad tab
7 comments total. Showing first comments.
0 reply
lekremyelsew 10 wrote on June 29 2008, 12:00 am

Good tab, but if you look at them play live, they use seven strings

0 reply
lekremyelsew 10 wrote on June 29 2008, 12:00 am

Good tab, but if you look at them play live, they use seven strings

+4 reply
loveliesdeadx 31 wrote on July 1 2008, 08:15 pm

we all know this. but do we all own a seven string? i think not.

guest
You may want to rate the tab now too:
select rating
Wanna post a correction for this tab? Suggest correction