Oops, an error
Loading. Please wait.

Hands Of A Killer Tab

version 2
version 2

Whole song

Interactive

2,258 views 1 this week
no commentswrite comment
1 2 3 4 5
x 3
add to favorites
launch autoscroll
font size
0
reset
how to read this tab
guitar tuner
Autoscroll
slow
fast
+/-
esc
set tempo
stop
Help us to improve Ultimate-Guitar.com Take our survey!
×
Author
Band: Suicide Silence 
Album: The Cleansing
Song: Hands Of A Killer 
Tabbed by: Some Metalhead

Tuning 7 String tuned low to high(AEADGBE) 

I just tidied up the last tab and put the times down
and stuff. This is my first tab so if there is anything wrong with it please post 
a comment on my profile, thanks. 

Key:x = Palm Mute
    * = Pinch Harmonic
    h = Hammer On 



(0:00 - 0:49) 
E|---------------------------------|4X Chris starts this off and on the   
B|---------------------------------|   5th time Mark joins in, carry on for
G|---------------------------------|   16 more times and pause for the 
D|---------------------------------|   scream, then carry on for 8 more
A|---------------------------------|   times.
E|---5--------------2--------------|                        
A|-------3-2-3-2-3------3-2-3-2-3--|



(0:49 - 0:51)
E|---------------------------------|1X
B|---------------------------------|
G|---------------------------------|
D|---------------------------------|
A|1-1-1----------------------------|
E|1-1-1----------------------------|
A|1-1-1----------------------------|
  x x x      
  

(0:51 - 0:54)
E|---------------------------------|
B|---------------------------------|
G|---------------------------------|
D|---------------------------------|<--|
A|---------------------------------|   |  
E|---5555---------------5555-------|   |
A|----------2222-3333--------------|   |
                                       |
                                       |  
                                       |
(0:54 - 0:57)                          |
E|---------------------------------|   |
B|---------------------------------|   | 
G|---------------------------------|   |
D|---------------------------------|<--|
A|---------------------------------|   | 
E|---5555--------------------------|   | 
A|----------2222-3333--------------|   | 
                                       |
                                       |
                                       | 
(0:57 - 0:58)                          |  
E|---------------------------------|   |
B|---------------------------------|   |
G|---------------------------------|   |
D|---------------------------------|<--|Everything 2X 
A|---------------------------------|
E|---2-3-0-1-----------------------|
A|---2-3-0-1-----------------------|
     x x x x


(1:05 - 1:18
E|---------------------------------|6X After the 3rd time repeat
B|---------------------------------|   the 7*.
G|---------------------------------|   
D|---------------------------------|     
A|---------------------------------|
E|---0-0--9*---0-0--7*-------------|
A|---0-0-------0-0-----------------|
     x x       x x


(1:18 - 1:31
E|---------------------------------|4 times then pause for 1 second   
B|---------------------------------|and then play this another 4 times.   
G|---------------------------------|    
D|---------------------------------|   
A|---------------------------------|   
E|---5--------------2--------------|                        
A|-------3-2-3-2-3------3-2-3-2-3--|



(1:32 - 1:44
E|---------------------------------|5X
B|---------------------------------|
G|---------------------------------|
D|---------------------------------|
A|---------------------------------|
E|-------------------2-1-3---------|
A|0h2-2-2-2-2(3X)----2-1-3---------|
                     X X X


(2:16 - 2:30)
E|---------------------------------|X5
B|---------------------------------|
G|---------------------------------|
D|---------------------------------|
A|---------------------------------|
E|2-1-3--2-1-3---0-1-0-------------|
A|2-1-3--2-1-3---0-1-0-------------|
  X X X  X X X   X X X


(2:16 - 2:30
E|---------------------------------|6X after the 3rd time play this
B|---------------------------------|   E|0-0--9*---0-0--9*--|
G|---------------------------------|   A|0-0-------0-0------|
D|---------------------------------|     X X       X X
A|---------------------------------|
E|---0-0--9*---0-0--7*-------------|
A|---0-0-------0-0-----------------|
     x x       x x



(2:30 - 2:43
E|---------------------------------|4 times then pause for 1 second 
B|---------------------------------|and then play this another 4 times 
G|---------------------------------|   
D|---------------------------------|   
A|---------------------------------|   
E|---5--------------2--------------|                        
A|-------3-2-3-2-3------3-2-3-2-3--|



(2:44 - 3:10 
E|---------------------------------|5X
B|---------------------------------|
G|---------------------------------|
D|---------------------------------|
A|---------------------------------|
E|-------------------2-1-3---------|
A|0h2-2-2-2-2(3X)----2-1-3---------|
                     X X X




(3:10 - 3:23
E|---------------------------------|6X after the 3rd time play this
B|---------------------------------|   E|0-0--9*---0-0--9*--|
G|---------------------------------|   A|0-0-------0-0------|
D|---------------------------------|     X X       X X
A|---------------------------------|
E|---0-0--9*---0-0--7*-------------|
A|---0-0-------0-0-----------------|
     x x       x x



(3:51 - 4:08
E|---------------------------------|X5
B|---------------------------------|
G|---------------------------------|
D|---------------------------------|
A|---------------------------------|
E|2-1-3--2-1-3---0-1-0-------------|
A|2-1-3--2-1-3---0-1-0-------------|
  X X X  X X X   X X X



(4:08 - 4:11 
E|---------------------------------|X1
B|---------------------------------|
G|---------------------------------|
D|---------------------------------|
A|---------------------------------|
E|--2222---------------------------|
A|-------2222-1111-----------------|



Thats it! Thank you for reading this tab.
Suggest correction
Give kudos to tab author, rate the tab!
1 2 3 4 5
comments
print report bad tab
guest
You may want to rate the tab now too:
select rating
Wanna post a correction for this tab? Suggest correction