Oops, an error
Loading. Please wait.

Lifted Tab

version 2
version 2

Whole song

Interactive

6,266 views 21 this week
1 commentread comment
1 2 3 4 5
excellent!
x 2
add to favorites
launch autoscroll
font size
0
reset
how to read this tab
guitar tuner
Tab Pro tools
  • play this tab
  • loop segment
  • change instrument
  • show fretboard
  • metronome
Autoscroll
slow
fast
+/-
esc
set tempo
stop
Contributor
Tuning
A E A D F# B
  song: Lifted
  band: Suicide Silence
  Tuning: drop A (7-string) [A E A D G B E]
  this is not my first tab but there MIGHT be a mistake or two somewhere,so
 lemme know if there is. i went a little overboard with the
description lol.. hope you enjoy!

~ = Let ring             |-----------------------|  
* = P.M.                 | pay attention to notes|
<> = pinch harmonic      | throughout the tab    |
h = hammer-on            |-----------------------|
p = pull-off
\ = slide up
/ = slide down

guitar 1 comes in with heavy delay and reverb
e|-------------------------------------------------------------------|
b|----------12----------11-------------------------------------------|
g|--------------------------------6-------------9--------------------|
d|-------------------------------------------------------------------|
a|-------------------------------------------------------------------|
e|--2-------------3--------------------------------------------------|
a|---------------------------1-----------4---------------------------|

(INSANE PICKSLIDE DOWN THE FRETBOARD)

both guitars kick in straight distortion. 
guitar 1 plays only the high notes on the intro riff 
while guitar 2 plays below
                                                                                         
e|-----------------------------------------------------------------|
b|-----------------------------------------------------------------|
g|-----------------------------------------------------------------|
d|--4~---5~-------------4~----5~-----------------------------------|
a|--4~---5~---1~---4~---4~----5~---1~------------------------------|
e|--2~---3~---1~---4~---2~----3~---1~---4--2--1--4--2--1-----------|
a|------------1~---4~--------------1~---4--2--1--4--2--1-----------|
                                        *  *  *  *  *  *

 1st major riff (both guitars) ((i think bass does rhythm under this w/dist)) 
e|---------------------------------------------------------------------|
b|---------------------------------------------------------------------|
g|---------------------------------------------------------------------|
d|--4--------------4--------------5-------------5----------------------|
a|----4--------------4--------------4-------------4--------------------|
e|-------2-3-2-3--------2-3-2-3--------3-2-3-2-------3-2-3-2-----------|
a|---------------------------------------------------------------------|
         * * * *        * * * *        * * * *       * * * *

e|---------------------------------------------|-----------------------|
b|---------------------------------------------|-----------------------|
g|---------------------------------------------|-----------------------|
d|---------------------------------------------|-----------------------|(2X)
a|--1--------------1--------------4------------|4----------------------|
e|----1--------------1--------------4----------|--4--------------------|
a|-------1-4-1-4--------1-4-1-4--------4-7-4-7-|-----4-7-4-7-----------|
         * * * *        * * * *        * * * * |      * * * * 
                                               |
                                               |
                                              e|-----------------------|
       play this part on the                  b|-----------------------|
              2nd time                        g|-----------------------|
                                              d|-----------------------|
                                              a|-----------------------|
                                              e|<3>--------------------|
                                              a|-----------------------|
      


Main Riff guitar 1 
e|-------------------------------------------------------------------------|
b|-------------------------------------------------------------------------|
g|-------------------------------------------------------------------------|
d|------------8--8-------------9--8--6\8------------8--8-------------------|
a|------------x--x-------------x--x--x-x------------x--x-------------------|
e|------------6--6-------------7--6--4\6------------6--6------------4-1-4--|
a|--000--000---------000--000-------------000--000--------000--000--4-1-4--|
                               |--(A)--|  ^                         * *
                                          |                       (B)1ST TIME
                                         (c)                          ONLY
guitar 2 plays A,B,C under the noted sections

       (A)           (B)        (C)      both guitars instead of (B)(2nd
e|-------------|---------------|---|    |--------------------------|  Time)
b|-------------|---------------|---|    |--------------------------|
g|-------------|---------------|---|    |--------------------------|
d|--9--8--6\8--|---------------|---|    |--------------------------|
a|--x--x--x-x--|----------0~---|-0-|    |--------------------------|
e|--7--6--4\6--|---4-1-4--0~---|-0-|    |---4-1-4---4-1-4----------|
a|-------------|---4-1-4--0~---|-0-|    |---4-1-4---4-1-4----------|
                   * *           *          * *     * *


e|-------------------------------------------------------------------------|
b|-------------------------------------------------------------------------|
g|-------------------------------------------------------------------------|
d|------------8--8-------------9--8--6\8------------8--8-------------------|
a|------------x--x-------------x--x--x-x------------x--x-------------------|
e|------------6--6-------------7--6--4\6------------6--6------------4-1-4--|
a|--000--000---------000--000-------------000--000--------000--000--4-1-4--|
                                                                    * *   
                                                         
e|--------------------------|     play this on the 2nd
b|--------------------------| ==  and time instead
g|--------------------------|     of whats already shown
d|--------------------------|
a|--------------------------|
e|------4-1-4---4-1-4-------|                                                 
a|------4-1-4---4-1-4-------|
        * *     * *               

last time before teh breakdwn
e|---------------------------------------------------------------------|
b|---------------------------------------------------------------------|
g|---------------------------------------------------------------------|
d|------------8--8-----------------------------------------------------|
a|------------x--x-----------------------------------------------------|
e|------------6--6---4--1--4---4--1--4---4--1--4----7----3-------------|
a|--000--000---------4--1--4---4--1--4---4--1--4----7----3-------------|
                     *  *      *  *      *  *   

       14x
e|--------------|----------------------|
b|--------------|----------------------|
g|--------------|----------------------|
d|--------------|----------------------|
a|--------------|----------------------|
e|--1-----------|------4-1-4--4-1-4----|
a|-----2--1--2--|------4-1-4--4-1-4----|
       *  *  *         * *    * *


   14x again
e|--------------|--------------------------------|
b|--------------|--------------------------------|
g|--------------|--------------------------------|
d|--------------|--------------------------------|
a|--------------|--------------------------------|
e|--1-----------|----4-1-4--4-1-4--4-1-4--7--3---|
a|-----2--1--2--|----4-1-4--4-1-4--4-1-4--7--3---|
       *  *  *       * *    * *    * *   

do the main riff again
guitar 1 full distortion and reverb
e|--------------------------------------------------|
b|---------12----------11---------------------------|
g|---------------------------------6---------9------|
d|--------------------------------------------------|
a|--------------------------------------------------|
e|--------------------------------------------------|
a|--2-------------3----------1----------4-----------|

guitar 2  full distortion
e|----------------------------------------------------------|
b|----------------------------------------------------------|
g|----------------------------------------------------------|
d|--4~---5~-------------------------------------------------|X2
a|--4~---5~---1~--------------------------------------------|
e|--2~---3~---1~---4-3-1-4-3-1------------------------------|
a|------------1~---4-3-1-4-3-1------------------------------|
                   * * * * * *
                   |---------|
                 dont know if this
                 part is right but 
                 but its there for sure.

ANOTHA BREAKDWN!!
  guitar 1 or 2
 (------------)               BOTH GUITARS (2x)
e|------------|---------------------------------------------------|
b|------------|---------------------------------------------------|
g|------------|---------------------------------------------------|
d|------------|---------------------------------------------------|
a|------------|---------------------------------------------------|
e|-0--0--0--0-|---0--0--0---0--0--0---0--0--0---0--0--0-----------|
a|-1--1--1--1-|---1--1--1---1--1--1---1--1--1---1--1--1-----------|
(  t  i  n        a  li ty )
(  h  s  o                 )          <-- follow Mitch's pronunciation
(  i     t(your re^        )           and come in WHILE he says "reality"
(  s                       )


    both guitars        all notes are "semi-muted"
e|----------------------------------------|--------------|
b|----------------------------------------|--------------|
g|----------------------------------------|--------------|
d|----------------------------------------|--------------|
a|----------------------------------------|--------------|
e|--0--0--0---0--0--0---0--0--0---0--0--0-|--0--0--0--0--|
a|--0--0--0---0--0--0---0--0--0---0--0--0-|--0--0--0--0--|


guitar 1 brings back the intro riff (clean)(re-verb)(hvy delay)
e|---------------------------------------|---------------------------|
b|----------12----------11---------------|---------------------------|
g|--------------------------------6------|-------9-------------------|
d|---------------------------------------|---------------------------|
a|---------------------------------------|---------------------------|
e|--2-------------3----------------------|---------------------------|
a|---------------------------1-----------4---------------------------|
                                         |                
                                         |                
  guitar 2 pickslide  just like intro    | time sensitive 
e|---------------------------------------|----------------------------|
b|---------------------------------------|----------------------------|
g|---------------------------------------|----------------------------|
d|---------------------------------------|----------------------------|
a|---------------------------------------|////////////////------------|
e|---------------------------------------|////////////////------------|
a|---------------------------------------|////////////////------------|


  guitar 2 plays this while 1 continues with intro
e|---------------------------------------------------------------------|
b|---------------------------------------------------------------------|
g|---------------------------------------------------------------------|
d|--4--------------4--------------5-------------5----------------------|
a|----4--------------4--------------4-------------4--------------------|
e|-------2-3-2-3--------2-3-2-3--------3-2-3-2-------3-2-3-2-----------|
a|---------------------------------------------------------------------|
         * * * *        * * * *        * * * *       * * * *    

e|---------------------------------------------|-----------------------|
b|---------------------------------------------|-----------------------|
g|---------------------------------------------|-----------------------|
d|---------------------------------------------|-----------------------|(2X)
a|--1--------------1--------------4------------|4----------------------|
e|----1--------------1--------------4----------|--4--------------------|
a|-------1-4-1-4--------1-4-1-4--------4-7-4-7-|-----4-7-4-7-----------|
         * * * *        * * * *        * * * * |      * * * * 
                                               |
                                               |
                                              e|-----------------------|
       play this part on the                  b|-----------------------|
              2nd time                        g|-----------------------|
                                              d|-----------------------|
                                              a|-----------------------|
                                              e|<3>--------------------|
                                              a|-----------------------|
               

then a little different
next riff
e|-------------------------------------------------------------------------|
b|-------------------------------------------------------------------------|
g|-------------------------------------------------------------------------|
d|--4------------4~--5------------5~---------------------------------------|
a|----4----------4~----4----------5~--1------------1~--4------------4~-----|
e|-------2-3-2-3-2~-------3-2-3-2-3~----1----------1~----4----------4~-----|
a|-----------------------------------------1-4-1-4-1~-------4-7-4-7-4~-----|
         * * * *          * * * *          * * * *          * * * *


   HELLA SWEEPS!!!

e|--------------10h14h15p14p10---------------||  \
b|-----------12----------------12------------||  |
g|--------11----------------------11--------0||  |
d|---9h12----------------------------12------||x2|
a|------------------------------------------0||  |
e|-------------------------------------------||  |
a|-------------------------------------------||  |
                                                 |  play this whole
e|--------------9h13h14p13p9-----------------||  |  thing twice.
b|-----------11--------------11--------------||  |
g|--------10--------------------10----------0||  |
d|---8h11--------------------------11--------||x2|
a|------------------------------------------0||  |
e|-------------------------------------------||  |
a|-------------------------------------------||  /

  guitar 2 plays this behind guitar 1's sweep
e|-----------------------------------------------------------|
b|-----------------------------------------------------------|
g|-----------------------------------------------------------|
d|--4444444---55555555---------------------------------------| (x2)
a|--4444444---55555555---111111111---444444444---------------|
e|--2222222---33333333---111111111---444444444---------------|
a|-----------------------111111111---444444444---------------|



===========================================================================
 "CURVE-BALL SWEEP!!"  this only happens once(for those who ain't heard)D-:

e|--------------10h14h15\19/15p14p10--------------|        note:
b|-----------12----------------------12-----------|     all instruments
g|--------11----------------------------11--------|  (beside G1 obviously) 
d|---9h12----------------------------------12-----|  cut-out for this part
a|------------------------------------------------|
e|------------------------------------------------|
a|------------------------------------------------|
===========================================================================
  
   guitar 1 STILL!       
e|--------------10h14h15p14p10---------------||  \
b|-----------12----------------12------------||  |
g|--------11----------------------11--------0||  |
d|---9h12----------------------------12------||x2|
a|------------------------------------------0||  | 
e|-------------------------------------------||  | 
a|-------------------------------------------||  | fade-out with
                                                 |  this sweep!
e|--------------9h13h14p13p9-----------------||  |  
b|-----------11--------------11--------------||  |
g|--------10--------------------10----------0||  |
d|---8h11--------------------------11--------||x2|
a|------------------------------------------0||  |
e|-------------------------------------------||  |
a|-------------------------------------------||  /


  guitar 2                (fade-out with this rhythm behind sweeps)
e|---------------------------------------------------------------|
b|---------------------------------------------------------------|
g|---------------------------------------------------------------|
d|---------------------------------------------------------------|
a|---------------------------------------------------------------|
e|--2-2-2-2-2---2-2-2-2-2----1~--1~-----1~---1-4-1-4-------------|
a|--2-2-2-2-2---2-2-2-2-2----1~--1~-----1~---1-4-1-4-------------|
    * * * * *   * * * * *                    |-----|
                                          more semi muting
comments
We did not receive enough feedback on this tab! Please rate:
print report bad tab
1 2 3 4 5
1 comment total.
0 reply
breadtruck wrote on July 29 2011, 05:11 pm

Hey man great tab, 5 stars as far as i'm concerned.

Only thing I would say is that on the sweeps, instead of doing the 9h12 and the 8h11 at the start of each section, I would just hit the corresponding note on the A string instead. Just feels more comfortable for me that way as it's more of a sweeping motion and the only hammer on's/pull off's are on the E string.

But that's just my opinion, something to try if anyone here is having trouble with the sweeps.

I want to post or [tab]
guest
You may want to rate the tab now too:
select rating
Please do not post tabs as comments. Select "correction" instead!