Oops, an error
Loading. Please wait.

No Pity For A Coward Tab

version 2
version 2

Whole song

Interactive

87,180 views 138 this week
29 commentsread comments
1 2 3 4 5
x 31
add to favorites
launch autoscroll
font size
0
reset
how to read this tab
guitar tuner
Autoscroll
slow
fast
+/-
esc
set tempo
stop
Help us to improve Ultimate-Guitar.com Take our survey!
×
Author
Difficulty
Tuning
advanced
A E A D F# B
Suicide Silence - No Pity For A Coward

http://www.myspace.com/95822996
Drop A Tuning (from low to high) A E A D F# B

I know that they use 7 string guitars, but I'm better than you
and I know what I'm doing. I also talked to them about riffs to just clear
up this tab. Thanks Mark Suicide.

http://www.myspace.com/suicidesilence

http://www.suicidesilence.net

[0:01]

B|--------------------------------------------------------------------------------|
F#|-------------------------------------------------------------------------------|
D|--------------------------------------------------------------------------------|
A|-1~-----------------------------------------------------------------------------|
E|-1~-----------------------------------------------------------------------------|
A|-1~-----------------------------------------------------------------------------|


[0:04]

B|--------------------------------------------------------------------------------|
F#|-------------------------------------------------------------------------------|
D|--------------------------------------------------------------------------------|
A|-1------------------------------------------------------------------------------|
E|-1---1-1----1-1----1-1----1-1----1-1----1-1----1-1------------------------------|
A|-1---1-1----1-1----1-1----1-1----1-1----1-1----1-1------------------------------|


[0:06]

B|--------------------------------------------------------------------------------|
F#|-------------------------------------------------------------------------------|
D|--------------------------------------------------------------------------------|
A|-1------------------------------------------------------------------------------|
E|-1---------------------------------------------------------4--------------------|
A|-1--1-1-1---1-1-1---1-1-1---1-1-1---1-1-1---1-1-1---1-1-1-----1-1-1--1-1-1------|

B|--------------------------------------------------------------------------------|
F#|-------------------------------------------------------------------------------|
D|--------------------------------------------------------------------------------|
A|--------------------------------------------------------------------------------|
E|--------------4-4-4---4-4-4--------4--------------------------------------------|
A|-1-1-1--4-4-4----------------1-1-1----------------------------------------------|

B|---------------------------------------------------------------------------|
F#|--------------------------------------------------------------------------|
D|---------------------------------------------------------------------------|
A|-1-------------------------------------------------------------------------|
E|-1---------------------------------------------------------4---------------|
A|-1--1-1-1---1-1-1---1-1-1---1-1-1---1-1-1---1-1-1---1-1-1-----1-1-1--1-1-1-|

B|--------------------------------------------------------------------------------|
F#|-------------------------------------------------------------------------------|
D|--------------------------------------------------------------------------------|
A|--------------------------------------------------------------------------------|
E|--------------4-4-4---4-4-4--------4--------------------------------------------|
A|-1-1-1--4-4-4----------------1-1-1----------------------------------------------|

B|---------------------------------------------------------------------------|
F#|--------------------------------------------------------------------------|
D|---------------------------------------------------------------------------|
A|---------------------------------------------------------------------------|
E|---------5---------4----------5---------4---------5----------4----------5--|
A|-1-4-1-4---1-4-1-4----1-4-1-4---1-4-1-4---1-4-1-4----1-4-1-4----1-4-1-4----|

B|--------------------------------------------------------------------------------|
F#|-------------------------------------------------------------------------------|
D|--------------------------------------------------------------------------------|
A|--------------------------------------------------------------------------------|
E|---------4----------------------------------------------------------------------|
A|-1-4-1-4---1-4-1-4--------------------------------------------------------------|

B|--------------------------------------------------------------------------------|
F#|-------------------------------------------------------------------------------|
D|--------------------------------------------------------------------------------|
A|-1------------------------------------------------------------------------------|
E|-1----------------4---------------4-----------------------4-4-4--------4--------|
A|-1--1-1-1---1-1-1---1-1-1---1-1-1---1-1-1---1-1-1---4-4-4-------1-1-1-----------|

B|--------------------------------------------------------------------------------|
F#|-------------------------------------------------------------------------------|
D|--------------------------------------------------------------------------------|
A|--------------------------------------------------------------------------------|
E|-----------------4---------------4-----------------------4-4-4--------4---------|
A|---1-1-1---1-1-1---1-1-1---1-1-1---1-1-1---1-1-1---4-4-4-------1-1-1------------|

B|--------------------------------------------------------------------------------|
F#|-------------------------------------------------------------------------------|
D|--------------------------------------------------------------------------------|
A|--------------------------------------------------------------------------------|
E|-----------------4---------------4-----------------------4-4-4--------4---------|
A|---1-1-1---1-1-1---1-1-1---1-1-1---1-1-1---1-1-1---4-4-4-------1-1-1------------|

B|--------------------------------------------------------------------------------|
F#|-------------------------------------------------------------------------------|
D|--------------------------------------------------------------------------------|
A|--------------------------------------------------------------------------------|
E|-----------------4---------------4-----------------------4-4-4------------------|
A|---1-1-1---1-1-1---1-1-1---1-1-1---1-1-1---1-1-1---4-4-4-------1-1-1------------|


B|--------------------------------------------------------------------------------|
F#|-------------------------------------------------------------------------------|
D|-6---------6----------6---------6-6-6-6-----------------------------------------|
A|-5---------5----------5---------5-5-5-5-----------------------------------------|
E|-4---------4----------4---------4-4-4-4-----------------------------------------|
A|---1-4-1-4----1-4-1-4---1-4-1-4-------------------------------------------------|

B|--------------------------------------------------------------------------------|
F#|-------------------------------------------------------------------------------|
D|---------6----------6---------6-6-6-6-------------------------------------------|
A|---------5----------5---------5-5-5-5-------------------------------------------|
E|---------4----------4---------4-4-4-4-------------------------------------------|
A|-1-4-1-4----1-4-1-4---1-4-1-4---------------------------------------------------|

B|--------------------------------------------------------------------------------|
F#|-------------------------------------------------------------------------------|
D|---------6----------6---------6-6-6-6-------------------------------------------|
A|---------5----------5---------5-5-5-5-------------------------------------------|
E|---------4----------4---------4-4-4-4-------------------------------------------|
A|-1-4-1-4----1-4-1-4---1-4-1-4---------------------------------------------------|

B|------------------------------------------------------------------------------|
F#|-----------------------------------------------------------------------------|
D|---------6----------6---------6-6-6-6-----------------------------------------|
A|---------5----------5---------5-5-5-5-----------------------------------------|
E|---------4----------4---------4-4-4-4-----------------------------------------|
A|-1-4-1-4----1-4-1-4---1-4-1-4-------------------------------------------------|

B|------------------------------------------------------------------------------|
F#|----------------------(play this riff five times)----------------------------|
D|------------------------------------------------------------------------------|
A|-1----------------1--4--3--1----------------1--4--3--4------------------------|
E|-1--5-5-5--6-6-6--1--4--3--1--5-5-5--6-6-6--1--4--3--4--3*--------------------|
A|-1----------------1--4--3--1----------------1--4--3--4------------------------|

B|------------------------------------------------------------------------------|
F#|-----------------------------------------------------------------------------|
D|------------------------------------------------------------------------------|
A|------------------------------------------------------------------------------|
E|-------5-5-5--6-6-6--------2-2-2---------------5-5-5--6-6-6-------------3*----|
A|-1-1-1--------------1-1-1-------4-4-4---1-1-1--------------1-1-1--4-4-4-------|

B|-------------------------------------------------------------------------------------|
F#|------------------------------------------------------------------------------------|
D|-------------------------------------------------------------------------------------|
A|-------------------------------------------------------------------------------------|
E|-------5-5-5--6-6-6--------2-2-2---------------5-5-5--6-6-6-------------3*-----------|
A|-1-1-1--------------1-1-1-------4-4-4---1-1-1--------------1-1-1--4-4-4--------------|


B|--------------------------------------------------------------------------------|
F#|-------------------------------------------------------------------------------|
D|--------------------------------------------------------------------------------|
A|--------------------------------------------------------------------------------|
E|-------5-5-5--6-6-6--------2-2-2---------------5-5-5--6-6-6---------------------|
A|-1-1-1--------------1-1-1-------4-4-4---1-1-1--------------1-1-1--4-4-4---------|


B|--------------------------------------------------------------------------------|
F#|-------------------------------------------------------------------------------|
D|--------------------------------------------------------------------------------|
A|--------------------------------------------------------------------------------|
E|-------5-5-5--6-6-6--------2-2-2---------------5-5-5--6-6-6---------------------|
A|-1-1-1--------------1-1-1-------4-4-4---1-1-1--------------1-1-1--4-4-4---------|


B|--------------------------------------------------------------------------------|
F#|-------------------------------------------------------------------------------|
D|--------------------------------------------------------------------------------|
A|--------------------------------------------------------------------------------|
E|-------5-5-5--6-6-6--------2-2-2---------------5-5-5--6-6-6---------------------|
A|-1-1-1--------------1-1-1-------4-4-4---1-1-1--------------1-1-1--4-4-4---------|


[1:33]

B|--------------------------------------------------------------------------------|
F#|-------------------------------------------------------------------------------|
D|---------------------------------------------------------------6----------------|
A|-1-1----1-1--1-1--1-1--------1-1----1-1--1-1--1-1-------1--1---5----------------|
E|-1-1----1-1--1-1--1-1--------1-1----1-1--1-1--1-1-------1--1---4----------------|
A|-1-1----1-1--1-1--1-1--------1-1----1-1--1-1--1-1-------1--1--------------------|

B|--------------------------------------------------------------------------------|
F#|-------------------------------------------------------------------------------|
D|---------------------------------------------------------------6----------------|
A|-1-1----1-1--1-1--1-1--------1-1----1-1--1-1--1-1-------1--1---5----------------|
E|-1-1----1-1--1-1--1-1--------1-1----1-1--1-1--1-1-------1--1---4----------------|
A|-1-1----1-1--1-1--1-1--------1-1----1-1--1-1--1-1-------1--1--------------------|

B|------------------------------------------------------------------------------|
F#|-----------------------------------------------------------------------------|
D|------------------------------------------------------------------------------|
A|------------------------------------------------------------------------------|
E|-4----------------4---------------4----------------------4-4-4--------4-------|
A|---1-1-1---1-1-1---1-1-1---1-1-1---1-1-1---1-1-1---4-4-4-------1-1-1----------|

B|---------------------------------------------------------------------------|
F#|--------------------------------------------------------------------------|
D|---------------------------------------------------------------------------|
A|---------------------------------------------------------------------------|
E|-----------------4---------------4-----------------------4-4-4--------4----|
A|---1-1-1---1-1-1---1-1-1---1-1-1---1-1-1---1-1-1---4-4-4-------1-1-1-------|


B|--------------------------------------------------------------------------------|
F#|-------------------------------------------------------------------------------|
D|--------------------------------------------------------------------------------|
A|--------------------------------------------------------------------------------|
E|-----------------4---------------4-----------------------4-4-4--------4---------|
A|---1-1-1---1-1-1---1-1-1---1-1-1---1-1-1---1-1-1---4-4-4-------1-1-1------------|


B|--------------------------------------------------------------------------------|
F#|-------------------------------------------------------------------------------|
D|--------------------------------------------------------------------------------|
A|--------------------------------------------------------------------------------|
E|-----------------4---------------4-----------------------4-4-4--------4---------|
A|---1-1-1---1-1-1---1-1-1---1-1-1---1-1-1---1-1-1---4-4-4-------1-1-1------------|


B|---------------------------------------------------------------------------|
F#|--------------------------------------------------------------------------|
D|---------------------------------------------------------------------------|
A|---------------------------------------------------------------------------|
E|---------5---------4----------5---------4---------5----------4----------5--|
A|-1-4-1-4---1-4-1-4----1-4-1-4---1-4-1-4---1-4-1-4----1-4-1-4----1-4-1-4----|

B|--------------------------------------------------------------------------------|
F#|-------------------------------------------------------------------------------|
D|-------------------6----------6----------6---------6-6-6-6----------------------|
A|-------------------5----------5----------5---------5-5-5-5----------------------|
E|---------4---------4----------4----------4---------4-4-4-4----------------------|
A|-1-4-1-4---1-4-1-4----1-4-1-4----1-4-1-4---1-4-1-4------------------------------|

B|-----------------------------------------|
F#-----------------------------------------|
D|---------6----------6---------6-6-6-6----|
A|---------5----------5---------5-5-5-5----|
E|---------4----------4---------4-4-4-4----|
A|-1-4-1-4----1-4-1-4---1-4-1-4------------|

B|--------------------------------------------------------------------------------|
F#|-------------------------------------------------------------------------------|
D|---------6----------6---------6-6-6-6-------------------------------------------|
A|---------5----------5---------5-5-5-5-------------------------------------------|
E|---------4----------4---------4-4-4-4-------------------------------------------|
A|-1-4-1-4----1-4-1-4---1-4-1-4---------------------------------------------------|

B|--------------------------------------------------------------------------------|
F#|-------------------------------------------------------------------------------|
D|---------6----------6---------6-6-6-6-------------------------------------------|
A|---------5----------5---------5-5-5-5-------------------------------------------|
E|---------4----------4---------4-4-4-4-------------------------------------------|
A|-1-4-1-4----1-4-1-4---1-4-1-4---------------------------------------------------|


B|---------------------------------------------------------------------------|
F#|--------------------------------------------------------------------------|
D|---------------------------------------------------------------------------|
A|-1~---1--------------------------------------------------------------------|
E|-1~---1--------------------------------------------------------------------|
A|-1~---1--------------------------------------------------------------------|

Suicide Silence is fucking genius because they hold down A# through
most of the song till the breakdown to give it a heavy ass sound.

B|--------------------------------------------------------------------------------|
F#|-------------------------------------------------------------------------------|
D|--------------------------------------------------------------------------------|
A|-0-0-0-0-0-------0-0-0-0-0--0-0-0-0-0--0-0-0-0-0--------------------------------|
E|-0-0-0-0-0-------0-0-0-0-0--0-0-0-0-0--0-0-0-0-0--------------------------------|
A|-0-0-0-0-0-------0-0-0-0-0--0-0-0-0-0--0-0-0-0-0--------------------------------|

B|--------------------------------------------------------------------------------|
F#|-------------------------------------------------------------------------------|
D|--------------------------------------------------------------------------------|
A|-0-0-0-0-0--0-0-0-0-0--0-0-0-0-0------------------------------------------------|
E|-0-0-0-0-0--0-0-0-0-0--0-0-0-0-0------------------------------------------------|
A|-0-0-0-0-0--0-0-0-0-0--0-0-0-0-0------------------------------------------------|

B|--------------------------------------------------------------------------------|
F#|-------------------------------------------------------------------------------|
D|--------------------------------------------------------------------------------|
A|-0-0-0-0-0--0-0-0-0-0--0-0-0-0-0------------------------------------------------|
E|-0-0-0-0-0--0-0-0-0-0--0-0-0-0-0------------------------------------------------|
A|-0-0-0-0-0--0-0-0-0-0--0-0-0-0-0------------------------------------------------|

B|---------------------------------------------------------------------------|
F#|--------------------------------------------------------------------------|
D|---------------------------------------------------------------------------|
A|-0-0-0-0-0--1-1-1-1-1------------------------------------------------------|
E|-0-0-0-0-0--1-1-1-1-1------------------------------------------------------|
A|-0-0-0-0-0--1-1-1-1-1------------------------------------------------------|

       (sweeping comes in, the tabs are at the bottom)
B|--------------------------------------------------------------------------------|
F#|-------------------------------------------------------------------------------|
D|----------------------7-----------8---------------------------------------------|
A|---7~-6--7---6-6-6-6--6--7-7-7-7--7---------------------------------------------|
E|---7~-6--7---6-6-6-6--5--7-7-7-7--6---------------------------------------------|
A|---7~-6--7---6-6-6-6-----7-7-7-7------------------------------------------------|

B|--------------------------------------------------------------------------------|
F#|-------------------------------------------------------------------------------|
D|----------------------7-----------8---------------------------------------------|
A|---7~-6--7---6-6-6-6--6--7-7-7-7--7---------------------------------------------|
E|---7~-6--7---6-6-6-6--5--7-7-7-7--6---------------------------------------------|
A|---7~-6--7---6-6-6-6-----7-7-7-7------------------------------------------------|

B|--------------------------------------------------------------------------------|
F#|-------------------------------------------------------------------------------|
D|--------------------------------------------------------------------------------|
A|-0-0-0-0-0-------0-0-0-0-0--0-0-0-0-0--0-0-0-0-0--------------------------------|
E|-0-0-0-0-0-------0-0-0-0-0--0-0-0-0-0--0-0-0-0-0--------------------------------|
A|-0-0-0-0-0-------0-0-0-0-0--0-0-0-0-0--0-0-0-0-0--------------------------------|

B|--------------------------------------------------------------------------------|
F#|-------------------------------------------------------------------------------|
D|--------------------------------------------------------------------------------|
A|-0-0-0-0-0--0-0-0-0-0--0-0-0-0-0------------------------------------------------|
E|-0-0-0-0-0--0-0-0-0-0--0-0-0-0-0------------------------------------------------|
A|-0-0-0-0-0--0-0-0-0-0--0-0-0-0-0------------------------------------------------|

B|----------------------------------|
F#|---------------------------------|
D|----------------------------------|
A|-0-0-0-0-0--0-0-0-0-0--0-0-0-0-0--|
E|-0-0-0-0-0--0-0-0-0-0--0-0-0-0-0--|
A|-0-0-0-0-0--0-0-0-0-0--0-0-0-0-0--|

B|----------------------------------------------------|
F#|---------------------------------------------------|
D|----------------------------------------------------|
A|-0-0-0-0-0--1-1-1-1-1~---------------0-0-0-0-0-0-0--|
E|----------------------------------------------------|
A|-0-0-0-0-0--1-1-1-1-1~---------------0-0-0-0-0-0-0--|


[Sweeping Riff]

B|-----------------13-18-13----------------------------12-16-12-------------------|
F#|-------------15----------15----------------------14----------14----------------|
D|-----------14----------------14----------------13----------------13-------------|
A|--------15----------------------15----------14----------------------14----------|
E|--12-17----------------------------17-12-16----------------------------16-------|
A|--------------------------------------------------------------------------------|


B|----------------13-18-13--------------------------------------------------------|
F#|------------15----------15-------------------------------------14-17-14--------|
D|----------14----------------14----------------12-15-12-------15-----------------|
A|-------15----------------------15----------14----------14-17--------------------|
E|-12-17----------------------------17-13-16--------------------------------------|
A|--------------------------------------------------------------------------------|

B|------------13-17-T22P17-13----------------------12-16-T21P16-12----------------|
F#|--------15-----------------15-----------------14---------------14--------------|
D|------14----------------------14------------13--------------------13------------|
A|---15---------------------------15--------14------------------------14----------|
E|-17-------------------------------17-12-16----------------------------16--------|
A|--------------------------------------------------------------------------------|

 B|------------13-17-T22-P17-13-----------------------------------------------------|
F#|--------15-----------------15----------------------------------14-17-14----------|
D|------14----------------------14--------------12-15-12-------15-------------------|
A|---15---------------------------15---------14----------14-17----------------------|
E|-17-------------------------------17-13-16----------------------------------------|
A|----------------------------------------------------------------------------------|

It's all pretty much right except for riffs right
around 1:12 to 1:33 but it's all good.I highly doubt you can come up with a closer
riff to it.Enjoy this shit.
Suggest correction
comments
print report bad tab
29 comments total. Showing first comments.
0 reply
kennyball 72 Jun 29, 2007 08:04 PM

Sorry for the tab being uneven near the bottom. I wrote it all on "notepad" first and then pasted it here.

+1 reply
MISERYINDEXfan 222 Jul 03, 2007 04:41 PM

on this part 1:33
B|-----------------------------------------------------------------------------|
F#|-----------------------------------------------------------------------------|
D|---------------------------------------------------------------6--------------|
A|-1-1----1-1--1-1--1-1--------1-1----1-1--1-1--1-1-------1--1---5--------------|
E|-1-1----1-1--1-1--1-1--------1-1----1-1--1-1--1-1-------1--1---4--------------|
A|-1-1----1-1--1-1--1-1--------1-1----1-1--1-1--1-1-------1--1------------------|

B|-----------------------------------------------------------------------------|
F#|-----------------------------------------------------------------------------|
D|---------------------------------------------------------------6--------------|
A|-1-1----1-1--1-1--1-1--------1-1----1-1--1-1--1-1-------1--1---5--------------|
E|-1-1----1-1--1-1--1-1--------1-1----1-1--1-1--1-1-------1--1---4--------------|
A|-1-1----1-1--1-1--1-1--------1-1----1-1--1-1--1-1-------1--1------------------|

where the ones are before 6
5
4
there is one of those chords that dosent sound right.

-2 reply
kennyball 72 Jul 05, 2007 04:22 AM

Then fix it *******.

guest
You may want to rate the tab now too:
select rating
Wanna post a correction for this tab? Suggest correction