Oops, an error
Loading. Please wait.

No Pity For A Coward Tab

version 3
version 3

Whole song

Interactive

2,076 views 1 this week
1 commentread comment
1 2 3 4 5
please rate
add to favorites
launch autoscroll
font size
0
reset
how to read this tab
guitar tuner
Tab Pro tools
  • play this tab
  • loop segment
  • change instrument
  • show fretboard
  • metronome
×
Best way to learn
"No Pity For A Coward"
Autoscroll
slow
fast
+/-
esc
set tempo
stop
Contributor
Difficulty
Tuning
intermediate
A E A D F# B
-------------------------------------------------------------------------------
                     No Pity For A Coward - Suicide Silence
-------------------------------------------------------------------------------
Tabbed by:Jaredh_d2012
Email:jaredh.d2012

Tuning:AEADGBe

I've seen tabs on here that are for 6 strings in drop A but none for a seven 
string like Suicide Silence use. Here's my try.

e|---------------------------------------------------------------------------|
B|---------------------------------------------------------------------------|
G|---------------------------------------------------------------------------|
D|---------------------------------------------------------------------------|
A|-1-------------------------------------------------------------------------|
E|-1---------------1---------------------------------------------------------|
A|-1---------------1-----------------1*--------------------------------------|


e|--||-------------------------------------------------------------------------|
B|--||-------------------------------------------------------------------------|
G|--||-------------------------------------------------------------------------|
D|--||-------------------------------------------------------------------------|
A|-1||-------------------------------------------------------------------------|
E|-1||-111-111-111-111-111-111-111-111--4*--111-111-111-----4*--------4*-------|
A|-1||-111-111-111-111-111-111-111-111------111-111-111--4*--------1*----------|X2


e|-----------------------|  |-------------------|
B|-----------------------|  |-------------------|
G|-----------------------|  |-------------------|
D|-----------------------|  |-------------------|
A|-----------------------|  |-------------------|
E|---------5*---------4*-|  |--------5*---------|
A|-1-4-1-4----1-4-1-4----|X3|1-4-1-4----1-4-1-4-|


e|-------------------------------------------------------------------------------|
B|-------------------------------------------------------------------------------|
G|-------------------------------------------------------------------------------|
D|-------------------------------------------------------------------------------|
A|-------------------------------------------------------------------------------|
E|-4*-111-111--4*-111-111------4*------4*-111-111-4*-111-111-4*-111-111---4*-----|
A|----111-111-----111-111-4*-------1*-----111-111----111-111----111-111-4*---1*--|x3


e|-------------------------------------------------|
B|-------------------------------------------------|
G|-------------------------------------------------|
D|-------------------------------------------------|
A|-------------------------------------------------|
E|--4-----------4-----------4------------4---4---4-|
A|----4-1-4-1-4---4-1-4-1-4---4-1-4-1-4--4---4---4-|


e|--------------------------------------|
B|--------------------------------------|
G|--------------------------------------|
D|--------------------------------------|
A|--------------------------------------|
E|-1-5*-6*-1-4-1-1-5*-6*-1-------2+-----|
A|-1-------1-4-1-1-------1-2-1-0--------|x5


e|-----------------------------------------|
B|-----------------------------------------|
G|-----------------------------------------|
D|-----------------------------------------|
A|-----------------------------------------|
E|-----5* 6*-------------5*-6*--1-------2+-|
A|-0*--------1*-4*-1*-0*----------2-1-0----|x2

   Repeat 4 times             1&3           2          4
e|-----------------------||----------||----------||--------|
B|-----------------------||----------||----------||--------|
G|-----------------------||----------||----------||--------|
D|-----------------------||----------||----------||--------|
A|-----------------------||----------||----------||--------|
E|----5*-------------5*--||-------2*-||-4--1--2+-||-4---1--|
A|-0*---3*-2*-----0*---3*||-4*-1*----||-4--1-----||-4---1--|

   Repeat 4 times                       1&3      2&4
e|------------------------------------||----||----------|
B|------------------------------------||----||----------|
G|------------------------------------||----||----------|
D|------------------------------------||----||----------|
A|------------------------------------||----||--------4-|
E|-1--1------------1--1---1--1---1--1-||----||-1---1--4-|
A|-1--1------------1--1---1--1---1--1-||REST||-1---1----|

e|-------------------------------------------------------------------------------|
B|-------------------------------------------------------------------------------|
G|-------------------------------------------------------------------------------|
D|-------------------------------------------------------------------------------|
A|-------------------------------------------------------------------------------|
E|-4*-111-111--4*-111-111------4*------4*-111-111-4*-111-111-4*-111-111---4*-----|
A|----111-111-----111-111-4*-------1*-----111-111----111-111----111-111-4*---1*--|X4


e|-----------------------|
B|-----------------------|
G|-----------------------|
D|-----------------------|
A|-----------------------|
E|-4*--------5*----------|
A|---1-4-1-4----1-4-1-4--|X4

e|-----------||-------------------------------------------------|
B|-----------||-------------------------------------------------|
G|-----------||-------------------------------------------------|
D|-----------||-------------------------------------------------|
A|-----------||-------------------------------------------------|
E|-4*--------||--4-----------4-----------4------------4---4---4-|
A|---1-4-1-4-||----4-1-4-1-4---4-1-4-1-4---4-1-4-1-4--4---4---4-|X4

e|---------------------------------------------------------------------------|
B|---------------------------------------------------------------------------|
G|---------------------------------------------------------------------------|
D|---------------------------------------------------------------------------|
A|-1-------------------------------------------------------------------------|
E|-1-------------------------------------------------------------------------|
A|-1-------------------1*--------------REST----------------------------------|

e|------------------------------------------------------------------------------------------|
B|------------------------------------------------------------------------------------------|
G|------------------------------------------------------------------------------------------|
D|------------------------------------------------------------------------------------------|
A|------------------------------------------------------------------------------------------|
E|-00000---00000-00000---00000---00000-00000---00000---00000-00000---00000---00000--11111---|
A|-00000---00000-00000---00000---00000-00000---00000---00000-00000---00000---00000--11111---|

e|----------8-12-8---------------7-12-7---------------8-12-8-------------------------------|
B|--------10------10------------9------9------------10------10----------------------8-11-8-|
G|-------9----------9----------8--------8----------9----------9----------7-10-7----9-------|
D|-----10------------10-------9----------9-------10------------10-------8------8-11--------|
A|-7-12----------------12-7-11------------11-7-12----------------12-7-10-------------------|
E|-----------------------------------------------------------------------------------------|
A|-----------------------------------------------------------------------------------------|
 |                                                                                         |X2
e|-----------------------------------------------------------------------------------------|
B|-----------------------------------------------------------------------------------------|
G|-----------------------------------------------------------------------------------------|
D|-----------------------------------------------------------------------------------------|
A|-7---------------------6-------------------7--------------------------6-----------7------|
E|-7---------------------6-------------------7---------------------3333-3------4444-4------|
A|-7---------------------6-------------------7---------------------3333-3------4444-4------|

e|---------8-12t17-8---------------7-11t16-7---------------8-12t17-8------------------------------|
B|-------10---------10------------9---------9------------10---------10----------------------8-11-8|
G|------9-------------9----------8-----------8----------9-------------9----------7-10-7----9------|
D|----10---------------10-------9-------------9-------10---------------10-------8------8-11-------|
A|7-12-------------------12-7-11---------------11-7-12-------------------12-7-10------------------|
E|------------------------------------------------------------------------------------------------|
A|------------------------------------------------------------------------------------------------|
 |                                                                                             |X2
e|------------------------------------------------------------------------------------------------|
B|------------------------------------------------------------------------------------------------|
G|------------------------------------------------------------------------------------------------|
D|------------------------------------------------------------------------------------------------|
A|-00000------00000-00000------00000---00000-00000------00000---00000-00000---00000---00000-00000-|
E|-00000------00000-00000------00000---00000-00000------00000---00000-00000---00000---00000-00000-|
A|-00000------00000-00000------00000---00000-00000------00000---00000-00000---00000---00000-00000-|


e|---------8-12t17--------|
B|-------10---------------|
G|------9-----------------|
D|----10------------------|
A|--12--------------------|
E|------------------------|
A|------------------------|
 |                        |
e|------------------------|
B|------------------------|
G|------------------------|
D|------------------------|
A|-00000-11111------------|
E|-00000-11111------------|
A|-00000-11111------------|




************************************

| /   slide up
| \   slide down
| h   hammer-on
| p   pull-off
| ~   vibrato
| +   harmonic
| x   Mute note
| t   Tap
| b   Bend
| pb  Pre-bend
| br  Bend release
| pbr Pre-bend release
| brb Bend release bend

************************************
comments
We did not receive enough feedback on this tab! Please rate:
print report bad tab
1 2 3 4 5
1 comment total.
0 reply
MetalNKS wrote on December 1 2010, 11:17 pm

Just a question, what's the legend for the asterisks in the tab?

I want to post or [tab]
guest
You may want to rate the tab now too:
select rating
Please do not post tabs as comments. Select "correction" instead!