Oops, an error
Loading. Please wait.

Smashed Tab

450 views 1 this week
1 commentread comment
1 2 3 4 5
2 more votes to show rating
add to favorites
launch autoscroll
font size
0
reset
how to read this tab
guitar tuner
Autoscroll
slow
fast
+/-
esc
set tempo
stop
Help us to improve Ultimate-Guitar.com Take our survey!
×
Author
Difficulty
Tuning
novice
A E A D F# B
-------------------------------------------------------------------------------
                             Smashed - Suicide Silence
-------------------------------------------------------------------------------
Tabbed by:Bassplayer6969
E-mail:

Tuning: AEADF#B

B|------------7+---------------------------------------------------------------|0:57-1:17--|
F#|------------7+--------------------------------------------------------------------------|
D|--------------7+-------------------------------------------------------------------------|
A|---------------7+------------------------------------------------------------------------|
E|-12/1---012-------012--------------------------------------------------------------------|
A|-12/1---012-------012--------------------------------------------------------------------|

B|---------------------------------------------------------------------------|1:18-1:35--|
F#|--------------------------------------------------------------------------------------|
D|---------------------------------------------------------------------------------------|
A|4-----4---6---4------------------------------------------------------------------------|
E|4-012-4-0-6-0-4-012--------------------------------------------------------------------|
A|--012---0---0---012--------------------------------------------------------------------|

These are the parts from 0:57-1:35. The 1:18-1:35 is also the outro 2:30-3:06

************************************

| /   slide up
| \   slide down
| h   hammer-on
| p   pull-off
| ~   vibrato
| +   harmonic
| x   Mute note
| b   Bend
| pb  Pre-bend
| br  Bend release
| pbr Pre-bend release
| brb Bend release bend

************************************
Suggest correction
Give kudos to tab author, rate the tab!
1 2 3 4 5
comments
print report bad tab
1 comment total.
0 reply
trollofpunk 10 Mar 23, 2015 09:56 PM

can you make the entire song, and in guitar pro format?

guest
You may want to rate the tab now too:
select rating
Wanna post a correction for this tab? Suggest correction