Oops, an error
Loading. Please wait.

The Price Of Beauty Tab

version 1
version 1

Whole song

Interactive

12,652 views 9 this week
1 commentread comment
1 2 3 4 5
accurate
x 5
add to favorites
launch autoscroll
font size
0
reset
how to read this tab
guitar tuner
Autoscroll
slow
fast
+/-
esc
set tempo
stop
Help us to improve Ultimate-Guitar.com Take our survey!
×
Author
Updated 1/8/09

Wasn't hard to tab, the very first intro groove was a little hard to make out so don't 
it out on me if it's wrong, I tried. Note that they use seven string guitars and I tabbed 
out for six string because not many people have seven strings. Enjoy!

Suicide Silence
"The Price of Beauty" (Track 4) - Approximately 2 min. and 46 sec. in length

Off of the album "The Cleansing"

Guitar 1 - Chris Garza - Tuned to Drop-A (A E A D F# B)
Guitar 2 - Mark Heylmun - Tuned to Drop-A (A E A D F# B)


Legend:
 b = bend
 ~ = vibrato
 h = hammer-on/slur up
 p = pull-off/slur down
 / = slide up
 \ = slide down
 . = palm mute
 * = pinch harmonic
( )= optional note

(Intro)

Groove I
0:00
Both guitars

B|---------------------------------------|
G|---------------------------------------|
D|---------------------------------------|
A|-----------------------2-1-0-2-1-0-1-0-|
E|-------------3*--------2-1-0-2-1-0-1-0-|
A|-1-1-1-1-1-1----1-1-1--2-1-0-2-1-0-1-0-|
   . . . . . .           . . . .  . . . .

(Verse)

Groove II
0:03
Both Guitars

"Holding you down by your throat..."
B |------------------------------------|
F#|------------------------------------|
D |------------------------------------|
A |---------3h6-----------3h6----------|
E |-----2h5-----------2h5----------3h6-|
A |-3-6---------3-6------------3-6-----|
    . .         . .            . .

B |------------------------------------|
F#|------------------------------------|
D |------------------------------------|
A |---------3h6------------2-1---------|
E |-----2h5---------2h5p0--2-1---------|
A |-3-6---------3-6--------2-1---------|
    . .         . .        . .

B |-----------------------------------|
F#|-----------------------------------|
D |----------5h8---------5h8----------|
A |------4h7---------4h7----------4h7-|
E |-3-6----------3-6----------3-6-----|
A |-----------------------------------|
    . .          . .          . .

B |------------------------------------|
F#|------------------------------------|
D |---------5h8------------------------|
A |-----4h7----------------2-1---------|
E |-3-6-------------2h5p0--2-1---------|
A |-------------3-6--------2-1---------|
    . .         . .        . .

(repeated several times)

Guitar 2 Plays something like this randomly
(listen for timing)
B |-------|
F#|-------|
D |-------|
A |-2-1-0-|
E |-2-1-0-|
A |-2-1-0-|
    . . .

Small bridge type deal
0:15
Guitar 1
B |---------|
F#|---------|
D |---------|
A |-2-1-2-1-|
E |-2-1-2-1-|
A |-2-1-2-1-|
    . . . .

Guitar 2
B |---------|
F#|---------|
D |---------|
A |-2-1-2-1-|
E |-2-1-2-1-|
A |-2-1-2-1-|
    . . . .

B |---------|
F#|---------|
D |---------|
A |-2-1---3*|
E |-2-1-----|
A |-2-1-0---|
    . .

Groove III
0:27
Guitar 2
B |---------------------------|
F#|---------------------------|
D |---------------------------|
A |-3-3-3-3--3-3-3-3--1-1-1-1-|
E |-3-3-3-3--3-3-3-3--1-1-1-1-|
A |-3-3-3-3--3-3-3-3--1-1-1-1-|
    . . . .  . . . .  . . . .
(repeated several times, listen for timing)

0:37
Guitar 1
B |---|
F#|---|
D |---|
A |-0-|
E |-0-|
A |-0-|

(Guitar 1 joins into Groove III after the open A5)

Groove IV
0:48
(tremolo part)
B |-----|-------------------------------|
F#|-----|-------------------------------|
D |-----|-------------------------------|
A |-----|-------------------1-2-1-------|
E |-----|-------------------------3-0---|
A |-(0)-|-3-3-3-1-1-1-3-3-3-----------4-|

(Repeated several times)
(Grooves III & IV alternate)
(Verse repeats afterwards)

Groove V

B |----------------------------------------------------------|
F#|----------------------------------------------------------|
D |----------------------------------------------------------|
A |----------------------------------------------------------|
E |-2h5p2p0--2-1--2h5p2p0--2-1--2h5p2p0-2h5p2p0-2h5p2p0--2-1-|
A |----------2-1-----------2-1---------------------------2-1-|
             . .           . .                           . .

Breakdown
"Was this all worth it..."
(listen for timing)
B |-----|
F#|-----|
D |-----|
A |-2-1-|
E |-2-1-|
A |-2-1-|
    . .

(repeated)

(verse repeats and whatnot)

Repeat intro groove

That's roughly about it, comments are welcome :)
Suggest correction
comments
print report bad tab
1 comment total.
0 reply
maxvolume12 10 wrote on December 24 2014, 01:35 pm

Im just confused because they use 7 stringed guitars so i mean, whatever I guess

guest
You may want to rate the tab now too:
select rating
Wanna post a correction for this tab? Suggest correction