Oops, an error
Loading. Please wait.

The Price Of Beauty Tab

version 2
version 2

Whole song

Interactive

5,637 views 1 this week
no commentswrite comment
1 2 3 4 5
x 4
add to favorites
launch autoscroll
font size
0
reset
how to read this tab
guitar tuner
Autoscroll
slow
fast
+/-
esc
set tempo
stop
Help us to improve Ultimate-Guitar.com Take our survey!
×
Author
Difficulty
Tuning
Tabbers playing skills
intermediate
A E A D F# B
intermediate ++
-------------------------------------------------------------------------------
                     The Price of Beauty - Suicide Silence
-------------------------------------------------------------------------------
Tabbed by: Tex777
Email: Tex777@gmail.com

Tuning (low to high): Drop A  [A, E, A, D, Gb, B]


Intro / Outro riff
B|---------------------------------------------------------------------------|
G|---------------------------------------------------------------------------|
D|---------------------------------------------------------------------------|
A|-------------3-------------------------------------------------------------|
E|---------------2-1-2-3-2-1-2-3-2-1-----------------------------------------|
A|-2-2-2-2-2-2---2-1-2-3-2-1-2-3-2-1-----------------------------------------|
   x x x x x x ^ x x x x x x x x x x

note: guitar in right speaker plays pinch on 5th string, 3rd fret


Verse
B|---------------------------------------------------------------------------|
G|---------------------------------------------------------------------------|
D|---------------------------------------------------------------------------|
A|-----3h6---------3h6-----------------3h6----------3h6----------------------|
E|-2h5-----3---2h5-----3---2h5-3---2h5-----3----2h5-----3---2---3------------|
A|---------3-----------3-------3-----------3------------3---2---3------------|
           x           x       x           x            x   x   x

harmony to verse (right guitar, second time through verse)
B|---------------------------------------------------------------------------|
G|---------------------------------------------------------------------------|
D|---------5h8----------5h8---------------------5h8--------------------------|
A|-----4h7----------4h7-----------4h7-------4h7---------4h7p4----------------|
E|-5h6----------5h6-----------5h6------5h6----------5h6-------3---2----------|
A|------------------------------------------------------------3---2----------|
                                                              x   x

Interlude
B|---------------------------------------------------------------------------|
G|---------------------------------------------------------------------------|
D|---------------------------------------------------------------------------|
A|---------------------------------------------------------------------------|
E|-3-2-2-2----4-3-2-3--------------------------------------------------------|
A|-3-2-3-2----4-3-2-3--------------------------------------------------------|
   x x x x    x x x x

Note: left      right

(Goes through Verse again while left guitar goes into Chorus pt.A)


Chorus pt.A
B|---------------------------------------------------------------------------|
G|---------------------------------------------------------------------------|
D|---------------------------------------------------------------------------|
A|---------------------------------------------------------------------------|
E|-3-3-3-3------3-3-3-3------1-1-1-1------3-3-3-3------3-3-3-3---------------|
A|-3-3-3-3------3-3-3-3------1-1-1-1------3-3-3-3------3-3-3-3---------------|
   x x x x      x x x x      x x x x      x x x x      x x x x  

B|---------------------------------------------------------------------------|
G|---------------------------------------------------------------------------|
D|---------------------------------------------------------------------------|
A|---------------------------------------------------------------------------|
E|-1-1-1-1------4-4-4-4------4-4-4-4------1-1-1-1----------------------------|
A|-1-1-1-1------4-4-4-4------4-4-4-4------1-1-1-1----------------------------|
   x x x x      x x x x      x x x x      x x x x  

Chorus pt.B
B|---------------------------------------------------------------------------|
G|---------------------------------------------------------------------------|
D|---------------------------------------------------------------------------|
A|-------------4-------------------------------------------------------------|
E|-----------------6---3-----------------------------------------------------|
A|-4---1---3---------------7---1---------------------------------------------|
   "   "   "   "   "   "   "   "
(Verse Again)


Bridge pt.A
B|---------------------------------------------------------------------------|
G|---------------------------------------------------------------------------|
D|---------------------------------------------------------------------------|
A|---------------------------------------------------------------------------|
E|-2h5p2p0-3---2---2h5p2p0-3---2---2h5p2p0-2h5p2p0-2h5p2p0-3---2-------------|
A|---------3---2-----------3---2---------------------------3---2-------------|
           x   x           x   x                           x   x

B|---------------------------------------------------------------------------|
G|---------------------------------------------------------------------------|
D|---------------------------------------------------------------------------|
A|---------------------------------------------------------------------------|
E|-3--2----------3--2--------------------------------------------------------|
A|-3--2----------3--2--------------------------------------------------------|
   x  x          x  x

(Again, through verse)

(Again, through Chorus, but slowed down)

(Outro Again)


| /  slide up
| \  slide down
| h  hammer-on
| p  pull-off
| ~  vibrato
| +  harmonic
| ^  pinch harmonic
| "  tremolo
| x  Mute note
===============================================================================
Suggest correction
comments
print report bad tab
guest
You may want to rate the tab now too:
select rating
Wanna post a correction for this tab? Suggest correction