Oops, an error
Loading. Please wait.

The Price Of Beauty Tab

version 3
version 3

Whole song

Interactive

728 views 1 this week
no commentswrite comment
1 2 3 4 5
please rate
add to favorites
launch autoscroll
font size
0
reset
how to read this tab
guitar tuner
Autoscroll
slow
fast
+/-
esc
set tempo
stop
Help us to improve Ultimate-Guitar.com Take our survey!
×
Contributor
Difficulty
Tuning
intermediate
A E A D F# B
                      Drop A with a 7 string preferred
                          Hope you enjoy this tab
                               Here it is! (:







Song : The Price Of Beauty
Band : Suicide Silence
Album : The Cleansing
Tuned : Drop A


==================
Things To Know
==================
h - Hammer On
P - Pull Off
x - Times Played
* - Harmonic




Intro
|------------------------------------------|
|------------------------------------------|
|------------------------------------------|
|------------------------------------------|
|------------------------------------------|
|---------3*-2--1--0--3--2--1--2--1--0-----|
|--111111----2--1--0--3--2--1--2--1--0-----|

Verse 1
|-----------------------------------------------------------------------|
|-----------------------------------------------------------------------|
|-----------------------------------------------------------------------|
|-----------------------------------------------------------------------| x3
|----------3h6----------3h6-------------------3h6-----------------------|
|------2h5----------2h5----------2h5------2h5----------2h5p2p0--3-2-----|
|--3h6----------3h6----------3h6------3h6----------3h6----------3-2-----|

Guitar Break
|--------------------------------|
|--------------------------------| The Harmonic can also be
|--------------------------------|  Played on A string on
|--------------------------------|      The 2nd fret!
|--------------------------------|
|--3-2-3-2-2-3-2-3--3-2-1-3*-----|
|--3-2-3-2-3-4-3-4--3-2-1--------|

Verse 2
|--------------------------------------------|
|--------------------------------------------|
|--------------------------------------------|
|--------------------------------------------| x4
|----------3h6----------3h6------------------|
|------2h5----------2h5----------2h5---------|
|--3h6----------3h6----------3h6-------------|

Breakdown 
|--------------------------|
|--------------------------|
|--------------------------|
|--------------------------| x4
|--------------------------|
|--33333--33333--11111-----|
|--33333--33333--11111-----|

Breakdown
|------------------------------------------------|
|------------------------------------------------|
|------------------------------------------------|
|------------------------------------------------|
|------------------------------------------------|
|--33333--33333--11111--11111--11111--11111------|
|--33333--33333--11111--11111--11111--11111------|

Breakdown 
|--------------------------|
|--------------------------|
|--------------------------|
|--------------------------| x4
|--------------------------|
|--33333--33333--11111-----|
|--33333--33333--11111-----|

Verse 3
|----------------------------------------------|
|----------------------------------------------|
|----------------------------------------------|
|----------------------------------------------| 
|-----------------4444-1111--------------------|
|---------------------------3333-0000----------|
|--4444-1111-4444---------------------1111-----|

Verse 3
|----------------------------------------------|
|----------------------------------------------|
|----------------------------------------------|
|----------------------------------------------| 
|-----------------4444-1111--------------------|
|---------------------------3333-00000000------|
|--4444-1111-4444------------------------------|

Verse 4
|----------------------------------------------|
|----------------------------------------------|
|----------------------------------------------|
|----------------------------------------------| 
|-----------------4444-1111--------------------|
|---------------------------3333-0000----------|
|--4444-1111-4444---------------------1111-----|

Verse 4
|----------------------------------------------|
|----------------------------------------------|
|----------------------------------------------|
|----------------------------------------------| 
|-----------------4444-1111-----------1111-----|
|---------------------------3333-0000----------|
|--4444-1111-4444------------------------------|

Breakdown 
|--------------------------|
|--------------------------|
|--------------------------|
|--------------------------| x2
|--------------------------|
|--33333--33333--11111-----|
|--33333--33333--11111-----|

Verse 3
|----------------------------------------------|
|----------------------------------------------|
|----------------------------------------------|
|----------------------------------------------| 
|-----------------4444-1111--------------------|
|---------------------------3333-0000----------|
|--4444-1111-4444---------------------1111-----|

Verse 3
|----------------------------------------------|
|----------------------------------------------|
|----------------------------------------------|
|----------------------------------------------| 
|-----------------4444-1111--------------------|
|---------------------------3333-00000000------|
|--4444-1111-4444------------------------------|

Verse 4
|----------------------------------------------|
|----------------------------------------------|
|----------------------------------------------|
|----------------------------------------------| 
|-----------------4444-1111--------------------|
|---------------------------3333-0000----------|
|--4444-1111-4444---------------------1111-----|

Verse 4
|----------------------------------------------|
|----------------------------------------------|
|----------------------------------------------|
|----------------------------------------------| 
|-----------------4444-1111-----------1111-----|
|---------------------------3333-0000----------|
|--4444-1111-4444------------------------------|

Breakdown 
|---------------------------------------------|
|---------------------------------------------|
|---------------------------------------------|
|---------------------------------------------|
|---------------------------------------------|
|--33333--33333--11111--33333--33333--1-1-----|
|--33333--33333--11111--33333--33333--1-1-----|

Verse 1
|-----------------------------------------------------------------------|
|-----------------------------------------------------------------------|
|-----------------------------------------------------------------------|
|-----------------------------------------------------------------------| x4
|----------3h6----------3h6-------------------3h6-----------------------|
|------2h5----------2h5----------2h5------2h5----------2h5p2p0--3-2-----|
|--3h6----------3h6----------3h6------3h6----------3h6----------3-2-----|

Verse 5
|---------------------------------------------------------------|
|---------------------------------------------------------------|
|---------------------------------------------------------------|
|---------------------------------------------------------------| x4
|---------------------------------------------------------------|
|--2h5p2p0--3-2--2h5p2p0--3-2--2h5p2p0-2h5p2p0-2h5p2p0--3-2-----|
|-----------3-2-----------3-2---------------------------3-2-----|

Breakdown 
|----------------------------|
|----------------------------|
|----------------------------|
|----------------------------| x4
|----------------------------|
|--3--2---3--2-----3--2------|
|--3--2---3--2-----3--2------|

Verse 2
|--------------------------------------------|
|--------------------------------------------|
|--------------------------------------------|
|--------------------------------------------| x4
|----------3h6----------3h6------------------|
|------2h5----------2h5----------2h5---------|
|--3h6----------3h6----------3h6-------------|

Breakdown                           Then This After
|--------------------------|      |------------------|
|--------------------------|      |------------------|
|--------------------------|      |------------------|
|--------------------------| x4   |------------------|
|--------------------------|      |------------------|
|--33333--33333--11111-----|      |--33333--33333----|
|--33333--33333--11111-----|      |--33333--33333----|

Breakdown Ending
|--------------------------|
|--------------------------|
|--------------------------|
|--------------------------| x8
|--------------------------|
|--33333--33333--11111-----|
|--33333--33333--11111-----|

Ending
|-------------------------------------------|
|-------------------------------------------|
|-------------------------------------------|
|-------------------------------------------|
|-------------------------------------------|
|---------3*-2--1--0--3--2--1--2--1--0--0---|
|--111111----2--1--0--3--2--1--2--1--0--0---|




           Here is the Harmony to the Verse 1 and 2
            And also the Harmony with Breakdowns!


Harmony Verse 1
|-----------------------------------------------------|
|-----------------------------------------------------|
|-----------------------------------------------------|
|-----------------------------------------------------|
|-------------10h13-------------10h13-----------------|
|--------9h12--------------9h12--------------9h12-----|
|--10h13-------------10h13-------------10h13----------|

Harmony Verse 1
|---------------------------------------------|
|---------------------------------------------|
|---------------------------------------------|
|---------------------------------------------|
|-------------10h13---------------------------|
|--------9h12--------------9h12p9-----3-2-----|
|--10h13-------------10h13--------10--3-2-----|


Harmony Verse 2
|-----------------------------------------------------|
|-----------------------------------------------------|
|-----------------------------------------------------|
|-----------------------------------------------------|
|-------------10h13-------------10h13-----------------|
|--------9h12--------------9h12--------------9h12-----|
|--10h13-------------10h13-------------10h13----------|


Harmony For Breakdown
|----------------------------------------|
|----------------------------------------|
|----------------------------------------|
|----------------------------------------|
|----------3h6----------3h6--------------|
|------2h5----------2h5----------2h5-----|
|--3h6----------3h6----------3h6---------|

Harmony for Breakdown
|-----------------------------------------------------|
|-----------------------------------------------------|
|-----------------------------------------------------|
|-----------------------------------------------------|
|-------------10h13-------------10h13-----------------|
|--------9h12--------------9h12--------------9h12-----|
|--10h13-------------10h13-------------10h13----------|



              Hope you enjoyed this tab (:
                  Rate and Comment!!!

Suggest correction new What's this?
You can suggest a correction to this tab. Community and Mods will review your correction and vote to approve or reject it.
comments
We did not receive enough feedback on this tab! Please rate:
print report bad tab
1 2 3 4 5
I want to post or [tab]
guest
You may want to rate the tab now too:
select rating
Please do not post tabs as comments. Select "correction" instead!