Oops, an error
Loading. Please wait.

Unanswered Bass Tab

version 1
version 1

Whole song

Interactive

14,710 views 9 this week
1 commentread comment
1 2 3 4 5
x 3
add to favorites
launch autoscroll
font size
0
reset
guitar tuner
Autoscroll
slow
fast
+/-
esc
set tempo
stop
Help us to improve Ultimate-Guitar.com Take our survey!
×
Author
Difficulty
Tuning
intermediate
A E A D F# B
            Unanswered by Suicide Silence

yes, i know dan uses a 5-string esp/ltd bass. but i don't. so i tabbed it out for
a 4-string just down-tune to drop A (AEAD). Enjoy!!!


(0:07 - 0:14)

D |------------------------------------------------------------------------------|
A |------------------1-------------------1---------------------------------------| 2x
E |------------------------------------------------------------------------------|
A |--1--0--1--2--5----------1--0--1--2-------------------------------------------|


(0:15 -0:21)

D |-----------------------------------------------------------------------------|
A |-----------------------------------------------------------------------------|
E |-----------------------------------------------------------------------------|
A |--2-1-0--2-1-0--2-1-0--2-1-0--2--1--0----0-1-2--0-1-2--0-1-2-----------------|

(0:23 - 0:39)
D |------------------------------------------------------------------------------|
A |------------------------------------------------------------------------------| 4x
E |------------------------------------------------------------------------------|
A |--2-2-1-0-1-0-2-1-0-2-1-0-1-0---2--1--0---------------------------------------|


(0:40 - 0:43)

D |------------------------------------------------------------------------------|
A |------------------1-------------------1---------------------------------------| 2x
E |------------------------------------------------------------------------------|
A |--1--0--1--2--5----------1--0--1--2-------------------------------------------|


(0:44 - 0:55)
D |---------------------------------------------------------------------------|
A |-----------1----------1----------------------------------------------------| 3x
E |---------------------------------------------------------------------------|
A |--1-0-1-2-----1-0-1--------------------------------------------------------|


(0:56 - 1:03)
D |------------------------------------------------------------------------------|
A |---------2--------------------------------------------------------------------| 4x
E |------------------------------------------------------------------------------|
A |--2-1-0-----2--1--0-----------------------------------------------------------|

(1:04 - 1:19)

D |---------------------------------------------------------------------------|
A |-----------1----------1----------------------------------------------------| 4x
E |---------------------------------------------------------------------------|
A |--1-0-1-2-----1-0-1--------------------------------------------------------|


(1:20 - 1:22)

D |-----------------------------------------------------------------------------|
A |-------------1---------------------------------------------------------------|
E |-----------------------------------------------------------------------------|
A |--1-0-1-2-0------1-0-1-------------------------------------------------------|


(1:23 - 1:30)

D |-----------------------------------------------------------------------------|
A |-----------------------------------------------------------------------------|
E |-----------------------------------------------------------------------------|
A |--2-1-0--2-1-0--2-1-0--2-1-0--2--1--0----2-1-0--2-1-0--2-1-0-----------------|


(1:31 - 1:45)

D |---------------------------------------------------------------------------|
A |---------------------------------------------------------------------------| 4x
E |---------------------------------------------------------------------------|
A |--2-2-1-0-2-1-0------2-1-0-2-1-0-1-----------------------------------------|


(1:48 - 2:06)
D |------------------------------------------------------------------------------|
A |------------------------------------------------------------------------------| 4x
E |------------------------------------------------------------------------------|
A |--1111-1-1-1---------etc.-----------------------------------------------------|


(2:06 - 2:13)

D |-----------------------------------------------------------------------------|
A |-----------------------------------------------------------------------------|
E |-----------------------------------------------------------------------------|
A |--2-1-0--2-1-0--2-1-0--2-1-0--2--1--0----0-1-2--0-1-2--0-1-2-----------------|


Well there you have it suicide silence's unanswered for bass! enjoy! please comment and rate!!!
Suggest correction
Give kudos to tab author, rate the tab!
1 2 3 4 5
comments
print report bad tab
1 comment total.
0 reply
LordEarthworm 41 Mar 08, 2014 07:40 PM

If you're gonna copy a pre-existing guitar tab note for note, at least tab out the bass drop dude.

guest
You may want to rate the tab now too:
select rating
Wanna post a correction for this tab? Suggest correction