Oops, an error
Loading. Please wait.

Wake Up Bass Tab

version 1
version 1

Whole song

Interactive

8,916 views 6 this week
2 commentsread comments
1 2 3 4 5
accurate
x 3
add to favorites
launch autoscroll
font size
0
reset
guitar tuner
Autoscroll
slow
fast
+/-
esc
set tempo
stop
Help us to improve Ultimate-Guitar.com Take our survey!
×
Difficulty
Tuning
intermediate
A E A D F# B
5 String
Tuning (low to high) AEADG

Intro

G -----------------------------------------------------|
D -----------------------------------------------------|
A -----------------------------------------------------|
E -----4-4--------4-4----------------------------------|
A-1-1--------1-1-------------1-1111--------------------|

G -----------------------------------------------------|
D -----------------------------------------------------|
A -----------------------------------------------------|
E -----4-4--------4-4----------------------------------|
A-1-1--------1-1-------------1-1~----------------------|

Verse:
G -----------------------------------------------------|
D -----------------------------------------------------|
A -----------------------------------------------------|  x4
E -----4-4--------4-4----------------------------------|
A 1-1--------1-1-------------1-1111--------------------|

G -----------------------------------------------------|
D -----------------------------------------------------|
A -----------------------------------------------------|  x3
E -----------------------------------------------------|
A -0~----3-3-------------------------------------------|

G -----------------------------------------------------|
D -----------------------------------------------------|
A -----------------------------------------------------|
E -----------------------------------------------------|
A -0-00000---------------------------------------------|


G -----------------------------------------------------|
D -----------------------------------------------------|
A -----------------------------------------------------|  x8
E -----------------------------------------------------|
A -00000000~-------------------------------------------|

G -------------------------------------|
D -------------------------------------|
A -------------------------------------|
E ------1-----1-------------2-----2----|
A -1--4----4----4---2--5------5------5-|

G ------------------------------------------------------|
D ------------------------------------------------------|
A ------------------------------------------------------|
E -------1---1-----------2---2----2-3-2----2------------|
A -1--4----4---4---2--5----5---5---------5--------------|

G ---------------------------------------------------------|
D ---------------------------------------------------------|
A -------------------7-----------------7-------------------|
E -4-5-4----4----------------------------------------------|
A --------7---7-4-5-----4-4-4-3-3-3-3----7-7-7-6-6-6-6-----|

G -----------------------------------------------------------------|
D -----------------------------------------------------------------|
A -----------------------------------------------------------------|
E ------1-----1-------------2-----2------------1---1----------2----|
A -1--4----4----4---2--5------5------5---1--4----4---4--2--5-------|


G -----------------------------------------------------|
D -----------------------------------------------------|
A -----------------------------------------------------|  x8
E -----------------------------------------------------|
A -00000000~-------------------------------------------|

G -----------------------------------------------------|
D -----------------------------------------------------|
A -----------------------------------------------------|  x4
E -----------------------------------------------------|
A -0000-0000-------------------------------------------|


Bridge: Play twice

G -------------------------------------------------------------------------|
D -------------------------------------------------------------------------|
A -------------------------------------------------------------------------|
E -------------------------------------------------------------------------|
A -3/6--66--6--6--3/6--6-6-6-6--66--6666---33-33-3-3--33-3-3-3-3--33-33-33-|


Guitar solo: Play four times

G -------------------------------------------------------------------------|
D -------------------------------------------------------------------------|
A -------------------------------------------------------------------------|
E -------------------------------------------------------------------------|
A -3/6--66--6--6--3/6--6-6-6-6--66--6666---33-33-3-3--33-3-3-3-3--33-33-33-|


Last Verse

G ----------------------------|
D ----------------------------|
A ----------------------------|  x3
E -----4-4------4-4-----------|
A -1-1------1-1------1-11111--|

G ------------------------------|
D ------------------------------|
A ------------------------------|
E -----4-4------4-4-------------|
A -1-1------1-1------1-1--------|

Outro

G ------------------------------|
D ------------------------------|
A ------------------------------| X4
E ------------------------------|
A -1-1----1-1----1-11111--------|


G -------------------------------------------------|
D -------------------------------------------------|
A -------------------------------------------------| x4
E -------------------------------------------------|
A -3-2-2---2-1-1--1-1---3-2-2---2-1-1--------------|


G ---------------------------------------------------------------|
D ---------------------------------------------------------------|
A ---------------------------------------------------------------|
E ---------------------------------------------------------------|
A -1-1--1-1---3-2-2---2-1-1--1-1--3-2-2---2-1-1------------------|

G ---------------------------------------------|
D ---------------------------------------------|
A ---------------------------------------------| x3
E ---------------------------------------------|
A -3-2-2--2-1-1--1-1--3-2-2--2-1-1-------------|


G ---------------------------------------------------------------|
D ---------------------------------------------------------------|
A ---------------------------------------------------------------|
E ---------------------------------------------------------------|
A -1-1--1-1---3-2-2---2-1-1--1-1--3-2-2---2-1-1---1-1---1-1------|
comments
We did not receive enough feedback on this tab! Please rate:
print report bad tab
1 2 3 4 5
2 comments total.
0 reply
^SiVART^ 296 wrote on November 5 2010, 03:40 pm

Its perfect but way not to give credit to the actual person who tabbed it and you forgot some technique parts

0 reply
LordEarthworm 74 wrote on August 31 2014, 06:16 pm

This looks a lot like the tab I got in a Guitar World magazine (that sounded spot on, btw), but with some transposition errors. The notes are right, but beware of the order of the parts. The semi-technical part in Verse is way off.

I want to post or [tab]
guest
You may want to rate the tab now too:
select rating
Please do not post tabs as comments. Select "correction" instead!