Oops, an error
Loading. Please wait.

Wake Up Tab

version 1
version 1

Whole song

Interactive

45,094 views 24 this week
9 commentsread comments
1 2 3 4 5
x 7
add to favorites
launch autoscroll
font size
0
reset
how to read this tab
guitar tuner
Autoscroll
slow
fast
+/-
esc
set tempo
stop
Help us to improve Ultimate-Guitar.com Take our survey!
×
Author
Band-Suicide Silence
Album-No Time To Bleed
Song-Wake Up
Tuning-AEADGBE low to high

key-  ^ -bend

i know they used 8 string guitars for this album. this is tabbed for a 7 string with the 
from there last album and can be played on a 6 string. this is the lead guitar.

0:00
|--------------------------------------|x3
|--------------------------------------|
|--------------------------------------|
|--------------------------------------|
|-----44444444-----44444444------------|
|-1-1----------1-1---------1--1-1--1-1-|
|-1-1----------1-1---------1--1-1--1-1-|

0:10
|-------------------------------|
|-------------------------------|
|-------------------------------|
|-------------------------------|
|-----44444444-----44444444-----|
|-1-1----------1-1----------1-1-|
|-1-1----------1-1----------1-1-|

0:14
|--------------------------------------|x3
|--------------------------------------|
|--------------------------------------|
|--------------------------------------|
|-----44444444-----44444444------------|
|-1-1----------1-1---------1--1-1--1-1-|
|-1-1----------1-1---------1--1-1--1-1-|

0:25
|---------------------------------------|
|---------------------------------------|
|---------------------------------------|
|---------------------------------------|
|-----44444444-----44444444-------------|
|-1-1----------1-1----------------------|
|-1-1----------1-1----------1-2-1-2-1-2-|

0:29
|-------------------------------------|
|-------------------------------------|
|-------------------------------------|
|-------------------------------------|
|-------------------------------------|
|-------------------------------------|
|-5---1---5---1---5---1---2-1-2-1-2-1-|

0:36
|---------------------|x4
|---------------------|
|---------------------|
|-4-2-3-2^------------|
|---------------------|
|---------------------|
|------------4-2-3-2^-|

0:51
|---------------------------------------------|
|---------------------------------------------|
|---------------------------------------------|
|---------------------------------------------|
|---------------------------------------5-6-5-|
|-0-0-5-5-0-0-6-6-0-0-5-5-0-0-6-6-5-6-5-------|
|---------------------------------------------|

0:55
|-----------------------------------------------------|x3
|-----------------------------------------------------|
|-----------------------------------------------------|
|-----------------------------------------------------|
|-----------------------------------------------5-6-5-|
|-------------------------0-0-5-5-0-0-6-6-5-6-5-------|
|-1-2-1-2-1-2-1-2-1-2-1-2-----------------------------|

1:07
|-------------------------------------------------------|
|-------------------------------------------------------|
|-------------------------------------------------------|
|-------------------------------------------------------|
|-------------------------0-0-5-5-0-0-6-6-0-0-5-5-0-0-6-|
|-------------------------0-0-5-5-0-0-6-6-0-0-5-5-0-0-6-|
|-1-2-1-2-1-2-1-2-1-2-1-2-------------------------------|

1:13
|---------------------|x4
|---------------------|
|---------------------|
|-4-2-3-2^------------|
|---------------------|
|---------------------|
|------------4-2-3-2^-|

1:28
|-----------|
|-----------|
|-----------|
|-----------|
|-----------|
|-----------|
|-0----0----|

1:36
|-------------------------------------------|x2
|-------------------------------------------|
|-----------------------------------6---5---|
|-4-3--4-7-6--4-3--1--3--4-3--4-7-6---------|
|-------------------------------------------|
|-------------------------------------------|
|-------------------------------------------|

2:06
|-------10-11-------11-12-------12-13-------|
|-11-12-------12-13-------13-14-------13-12-|
|-------------------------------------------|
|-------------------------------------------|
|-------------------------------------------|
|-------------------------------------------|
|-------------------------------------------|

2:09
|-14-------|x9
|----12-13-|
|----------|
|----------|
|----------|
|----------|
|----------|

2:13
|-------------------20-19^-|
|--------------------------|
|-14-13^---14-17^----------|
|--------------------------|
|--------------------------|
|--------------------------|
|--------------------------|

2:25
|-------------21-------------|x3
|-------18-20----20-18-------|
|-17-19----------------19-17-|
|----------------------------|
|----------------------------|
|----------------------------|
|----------------------------|

2:27
|-------------24--23^-|
|-------18-20---------|
|-17-19---------------|
|---------------------|
|---------------------|
|---------------------|
|---------------------|

2:36
|--------------------------------------|x3
|--------------------------------------|
|--------------------------------------|
|--------------------------------------|
|-----44444444-----44444444------------|
|-1-1----------1-1---------1--1-1--1-1-|
|-1-1----------1-1---------1--1-1--1-1-|

2:47
|-------------------------------|
|-------------------------------|
|-------------------------------|
|-------------------------------|
|-----44444444-----44444444-----|
|-1-1----------1-1----------1-1-|
|-1-1----------1-1----------1-1-|

2:50
|--------------------------------------|x4
|--------------------------------------|
|--------------------------------------|
|--------------------------------------|
|--------------------------------------|
|-1-1----------1-1---------1--1-1--1-1-|
|-1-1----------1-1---------1--1-1--1-1-|

3:05
|------------------------------|x4
|------------------------------|
|------------------------------|
|------------------------------|
|------------------------------|
|-2-2-2-0-0-0----0-2-2-2-0-0-0-|
|-2-2-2-0-0-0----0-2-2-2-0-0-0-|

3:16
|--------------------------------------------|x2
|--------------------------------------------|
|--------------------------------------------|
|--------------------------------------------|
|--------------------------------------------|
|-0-0----0-0----2-2-2-0-0-0----0-2-2-2-0-0-0-|
|-0-0----0-0----2-2-2-0-0-0----0-2-2-2-0-0-0-|

3:28
|------------------------------|x3
|------------------------------|
|------------------------------|
|------------------------------|
|------------------------------|
|-2-2-2-0-0-0----0-2-2-2-0-0-0-|
|-2-2-2-0-0-0----0-2-2-2-0-0-0-|

3:36
|----------------------------------------------------------|
|----------------------------------------------------------|
|----------------------------------------------------------|
|----------------------------------------------------------|
|----------------------------------------------------------|
|-0-0----0-0----2-2-2-0-0-0----0-2-2-2-0-0-0----0-0----0-0-|
|-0-0----0-0----2-2-2-0-0-0----0-2-2-2-0-0-0----0-0----0-0-|

thats it. hope you all like it. corrections are welcome and please comment.
first solo i have tabbed.
Suggest correction
comments
print report bad tab
9 comments total. Showing first comments.
0 reply
diego753 16 Aug 19, 2009 03:24 PM

what to palm mute?
doesnt make sense?
solo is wrong?

+2 reply
diego753 16 Aug 19, 2009 03:35 PM

my bad bro nvm its good just a lil wrong but hey i cant do better thx for tabbing it, been waiting for this

+1 reply
Jaredh_d2012 166 Aug 19, 2009 03:39 PM

|--------------------------------------|
|--------------------------------------|
|--------------------------------------|
|--------------------------------------|
|--------------------------------------|
|-1-1-44444444-1-1-4444444-1--1-1--1-1-|
|-1-1----------1-1---------1--1-1--1-1-|

guest
You may want to rate the tab now too:
select rating
Wanna post a correction for this tab? Suggest correction