Oops, an error
Loading. Please wait.

Wake Up tab

version 2
version 2

Whole song

Interactive

41,523 views 9 this week
4 commentsread comments
1 2 3 4 5
x 11
add to favorites
×
Save as Personal and add changes to this tab that will be seen only by you. Learn more ›
×
You can save this tab as Personal to edit and correct it or add notes. All changes will be seen only by you. Learn more »
launch autoscroll
font size
0
reset
how to read this tab
guitar tuner
backing track
0:00
0:00
edit
Autoscroll
slow
fast
+/-
esc
set tempo
stop
----------------------------------------------------------------------------
                             Wake Up - Suicide Silence
----------------------------------------------------------------------------
Tabbed by: Diogo Vargas, from The Way To Decay.
Email: im_vargas@hotmail.com

This is my first tab, hope you enjoy!
I think everything is all right.

Tuning: Drop A 7 string (EBGDAEA)

Riff A

e|--------------------------------------------------------------------------|
B|--------------------------------------------------------------------------|
G|--------------------------------------------------------------------------|
D|--------------------------------------------------------------------------|
A|-11--------11---------1-11-11---------------------------------------------|
E|-11-44444b-11-444444b-1-11-11---------------------------------------------|
A|-11--------11---------1-11-11---------------------------------------------|

(These are 1 not 11)

Riff B

e|--------------------------------------------------------------------------|
B|--------------------------------------------------------------------------|
G|--------------------------------------------------------------------------|
D|--------------------------------------------------------------------------|
A|-1--3--1------1--3---4-------1--------------------------------------------|
E|-1--3--1------1--3---4-------1--------------------------------------------|
A|-1--3--1--3b--1--3---4h7p4h7-1--------------------------------------------|

Riff C

e|--------------------------------------------------------------------------|
B|--------------------------------------------------------------------------|
G|--------------------------------------------------------------------------|
D|--------------------------------------------------------------------------|
A|-4h7p4h7p4---------3b--4h7p4h7p4------------------------------------------|
E|------------5h6p4-----------------5h6p4-----------------------------------|
A|-----------------------------------------3b-------------------------------|

Riff D

e|----------------|---------------------------------------------------------|
B|----------------|---------------------------------------------------------|
G|----------------|---------------------------------------------------------|
D|----------------|---------------------------------------------------------|
A|----------------|---------------------------------------------------------|
E|-----11-----22--|---11------22--2h3p2-----4h5p4---------------------------|
A|-14-----25------|-14------25-------------5---------747474--111111---------|

(these are "1" and "2" not "14" and "25", for the whole riff)

Riff E

e|--------------------------------------------------------------------------|
B|--------------------------------------------------------------------------|
G|--------------------------------------------------------------------------|
D|--------------------------------------------------------------------------|
A|-0--(0)--0--(0)-----------------------------------------------------------|
E|-0--(0)--0--(0)-----------------------------------------------------------|
A|-0--(0)--0--(0)-----------------------------------------------------------|

Riff F

e|--------------------------------------------------------------------------|
B|--------------------------------------------------------------------------|
G|--------------------------------------------------------------------------|
D|--------------------------------------------------------------------------|
A|-6/7\6--7--7-10--9---6/7\4--4--6--6/7--6--6/7\6--7--7-10--9--14--13-------|
E|-4/5\4--5--5/8---7---4/5\4--2--4--4/5--4--4/5\4--5--5/8---7--12--11-------|
A|--------------------------------------------------------------------------|
                                                 (these are "12" and "11")
Solo

e|---------------------------------------------------------------------------|
B|-------------------------------14-13-14-16---------------------------------|
G|-------------------------------------------14-13---------------------------|
D|----------------14h17p14h17p14---------------------------------------------|
A|-13h16p13h16p13------------------------------------------------------------|
E|---------------------------------------------------------------------------|
A|---------------------------------------------------------------------------|

E|-----------------------------------------------------16-15----------------|
B|--------------------------------------------------------------------------|
G|-t17-13-14-t17-13-14-t17-13-14-t17-13-14----------------------------------|
D|-----------------------------------------15-14-15-18----------------------|
A|--------------------------------------------------------------------------|
E|--------------------------------------------------------------------------|
A|--------------------------------------------------------------------------|

e|----------12h15p12----------------12h15p12----------------12h15p12--------|
B|-------14----------14----------14----------14----------14----------14-----|
G|-12h15----------------15-12h15----------------15-12h15----------------15--|
D|--------------------------------------------------------------------------|
A|--------------------------------------------------------------------------|
E|--------------------------------------------------------------------------|
A|--------------------------------------------------------------------------|

e|----------12h15p12--------21-20-------------------------------------------|
B|-------14----------14-----------------------------------------------------|
G|-12h15----------------15--------------------------------------------------|
D|--------------------------------------------------------------------------|
A|--------------------------------------------------------------------------|
E|--------------------------------------------------------------------------|
A|--------------------------------------------------------------------------|

(sweep picking)(im not 100% about this sweep)

Riff G

e|--------------------------------------------------------------------------|
B|--------------------------------------------------------------------------|
G|--------------------------------------------------------------------------|
D|--------------------------------------------------------------------------|
A|--------------------------------------------------------------------------|
E|--------------------------------------------------------------------------|
A|-11-11-1111111-11-1111111-11-1111111-11-11111-----------------------------|

Riff H

e|---------------------------------------|----------------------------------|
B|---------------------------------------|----------------------------------|
G|---------------------------------------|----------------------------------|
D|---------------------------------------|----------------------------------|
A|---------------------------------------|----------------------------------|
E|---------------------------------------|----------------------------------|
A|-431-321-1-431-321---431-321-1-431-321-|-11-11----------------------------|
 ( listen carefuly for the timing )

| /  slide up
| \  slide down
| h  hammer-on
| p  pull-off
| x  Mute note
| t  tap
| b  bend

            
            
Suggest correction
Creating personal tab
Creating personal tab
You can edit any tab online and save it as your Personal.

You can edit, replace or remove any tab part or add personal notes – all changes will be seen only by you.

Personal tabs can be accessed anytime from any device, even offline.
Learn more »
comments
print report bad tab
4 comments total. Showing first comments.
0 reply
xKnifekillerx 393 Dec 16, 2009 12:12 PM

Damn this is so good :DDD
we have some normal person tabbing suicide silence now and no retards who cant hear shit xDD

nice one. five star.

0 reply
ZukeNukem 10 Jan 07, 2010 12:32 PM

there's a fast slide in the tapping part

+2 reply
killtrend 73 Jan 09, 2010 03:23 PM

The sweep bit sounds like its moving a bit more like

e|----------12h15p12----------12-15/18p15----------15-----|
B|-------14----------14----14-------------17----17--------|
G|-12h15----------------15-------------------18-----------|
D|--------------------------------------------------------|
A|--------------------------------------------------------|
E|--------------------------------------------------------|
A|--------------------------------------------------------|


not sure if thats exact but sounds right to my ear

guest
You may want to rate the tab now too:
select rating
Wanna post a correction for this tab? Suggest correction