Oops, an error
Loading. Please wait.

Wasted Bass Tab

version 1
version 1

Whole song

Interactive

1,620 views 1 this week
no commentswrite comment
1 2 3 4 5
3 more votes to show rating
add to favorites
launch autoscroll
font size
0
reset
guitar tuner
Autoscroll
slow
fast
+/-
esc
set tempo
stop
Help us to improve Ultimate-Guitar.com Take our survey!
×
Author
Difficulty
Tuning
advanced
A E A D F# B
++++++++++++++++++++++++
|Suicide Silence-Wasted|
++++++++++++++++++++++++

Tuning:Drop A (AEAD)

tremelo picking on guitar between the two's
D|----------------------------------|----------------------------------|
A|----------------------------------|----------------------------------|
E|----------------------------------|----------------------------------|
A|-2x----2x----2x----2x----2x----2x-|-2x----2x----2x----2x----2x----2x-|

|----------------------------------|----------------------------------|
|----------------------------------|----------------------------------|
|----------------------------------|----------------------------------|
|-2x----2x----2x----2x----2x----2x-|-2x----2x----2x----2x----2x----2x-|

|-------------------------------------|
|-------------------------------------|
|-------------------------------------|
|-1-111-11-1-111-11-1-111-11-1-111--1-|

|-------------------------------------|
|-------------------------------------|
|-------------------------------------|
|-1-111-11-1-111-11-1-111-11-1-111--1-|

|-----------------------|-------------|
|-----------------------|-------------|
|-----------------------|-4-----3-----|
|-1x---1x------1x----1x-|---2-1---2-1-|

|--------------------------------------------------|-------------|
|--------------------------------------------------|-------------|
|--------------------------------------------------|-4-----3-----|
|-1-00-1-00-1-1-1-00-1-00-1-1-00-1-00-1-1-1-00-1-0-|---2-1---2-1-|

|--------------------------------------------------|-------------|
|--------------------------------------------------|-------------|
|--------------------------------------------------|-4-----3-----|
|-1-00-1-00-1-1-1-00-1-00-1-1-00-1-00-1-1-1-00-1-0-|---2-1---2-1-|

|-------------------------------------|
|-------------------------------------|
|-------------------------------------|
|-1-111-11-1-111-11-1-111-11-1-111--1-|

|-------------------------------------|
|-------------------------------------|
|-------------------------------------|
|-1-111-11-1-111-11-1-111-11-1-111--1-|

|-------------------------------|-------------------------------|
|-------------------------------|-------------------------------|
|---------------3-------------2-|---------------3---------------|
|-1-1-1-1-6-4-1---3-1-4-2-1-1---|-1-1-1-1-6-4-1---3-1-4-2-1-1-1-|

tremelo picking
|-----------------------------------------------------------|
|-----------------------------------------------------------|
|-------------44444-55555555-66666-444444444-66666-33333333-|
|-22222-55555-----------------------------------------------|

|-------------------------------|-------------------------------|
|-------------------------------|-------------------------------|
|---------------3-------------2-|---------------3---------------|
|-1-1-1-1-6-4-1---3-1-4-2-1-1---|-1-1-1-1-6-4-1---3-1-4-2-1-1-1-|

|------------------------|-------------|
|------------------------|-------------|
|------------------------|-4-----3-----|
|-1x----1x------1x----1x-|---2-1---2-1-|

|--------------------------------------------------|-------------|
|--------------------------------------------------|-------------|
|--------------------------------------------------|-4-----3-----|
|-1-00-1-00-1-1-1-00-1-00-1-1-00-1-00-1-1-1-00-1-0-|---2-1---2-1-|
-
|--------------------------------------------------|-------------|
|--------------------------------------------------|-------------|
|--------------------------------------------------|-4-----3-----|
|-1-00-1-00-1-1-1-00-1-00-1-1-00-1-00-1-1-1-00-1-0-|---2-1---2-1-|

this time through do the tremelo picking
|--------------------------------------|
|--------------------------------------|
|---5555---5555---55---5555---5555h6p5-|
|-2------2------2----2------2----------|

|--------------------------------------|
|--------------------------------------|
|---5555---5555---55---5555---5555h6p5-|
|-2------2------2----2------2----------|

|--------------------------------------|
|--------------------------------------|
|---5555---5555---55---5555---5555h6p5-|
|-2------2------2----2------2----------|

|--------------------------------------|
|--------------------------------------|
|---5555---5555---55----5555--5555h6p5-|
|-2------2------2----2------2----------|

this is the part with the screeching
|-------------------|-------------------|-------------------|
|-------------------|-------------------|-------------------|
|-------------------|-------------------|-------------------|
|-1111-111-11111111-|-1111-111-11111111-|-1111-111-11111111-|

|-------------------|-------------------|-------------------|
|-------------------|-------------------|-------------------|
|-------------------|-------------------|-------------------|
|-1111-111-11111111-|-1111-111-11111111-|-1111-111-11111111-|

|------------------------|-------------|
|------------------------|-------------|
|------------------------|-4-----3-----|
|-1x----1x------1x----1x-|---2-1---2-1-|

|--------------------------------------------------|-------------|
|--------------------------------------------------|-------------|
|--------------------------------------------------|-4-----3-----|
|-1-00-1-00-1-1-1-00-1-00-1-1-00-1-00-1-1-1-00-1-0-|---2-1---2-1-|

|--------------------------------------------------|-------------|
|--------------------------------------------------|-------------|
|--------------------------------------------------|-4-----3-----|
|-1-00-1-00-1-1-1-00-1-00-1-1-00-1-00-1-1-1-00-1-0-|---2-1---2-1-|

|----------------------------------|----------------------------------|
|----------------------------------|----------------------------------|
|----------------------------------|----------------------------------|
|-2x----2x----2x----2x----2x----2x-|-2x----2x----2x----2x----2x----2x-|

|----------------------------------|----------------------------------|
|----------------------------------|----------------------------------|
|----------------------------------|----------------------------------|
|-1x----1x----1x----1x----1x----1x-|-1x----1x----1x----1x----1x----1x-|

|----|---------------|---------------|---------------|---------------|
|----|---------------|---------------|---------------|---------------|
|----|---44---44---4-|---44---44---4-|---44---44---4-|---44---44---4-|
|----|-1----1----1---|-1----1----1---|-1----1----1---|-1----1----1---|

|----------------|----------------|----------------|----------------|
|----------------|----------------|----------------|----------------|
|---44---44----4-|---44---44----4-|---44---44----4-|---44---44----4-|
|-1----1-----1---|-1----1-----1---|-1----1-----1---|-1----1-----1---|

|-------------|
|-------------|
|-------------|
|-1-1x----1-1-|



Wasted
Lyrics:

You see I'm wasted,I can't quite get up yet,
You see I'm wasted,I can't quite get up yet,

You see I'm wasted,I can't quite get up yet,
You see my heads off ruating in this delusional stare,
You see I'm wasted,I can't quite get up yet,
You see my heads off rusting in this delusional stare,

The room kept spinning and spinning and spinning and spinning,
And I'm a fucking mess,

So I closed my eyes,
I shut them so tight,
To whitness explosions of pure color and beauty,
The room kept spinning and spinning,
I start to think a little differently of what we are,

I watched the color drain from the world that day,
I watched the color drain from the world that day,
Were so very insignificant,
Were so very insignificant,
Were so very insignificant,
Were so very insignificant,

With my eyes shut so tight,
I'm still seeing all of this beautiful light,
With my eyes shut so tight,
I'm still seeing all of this beautiful light,
Beautiful light,
Beautiful light,

The room kept spinning and spinning and spinning and spinning,
And I'm a fucking mess,

Were so very insignificant,
Were so very insignificant,

Embarrassment to molecules,
Embarrassment to molecules,
Embarrassment to molecules,
Embarrassment to molecules.
Suggest correction
Give kudos to tab author, rate the tab!
1 2 3 4 5
comments
print report bad tab
guest
You may want to rate the tab now too:
select rating
Wanna post a correction for this tab? Suggest correction