Oops, an error
Loading. Please wait.

Witness The Addiction Tab

version 1
version 1

Whole song

Interactive

4,965 views 1 this week
4 commentsread comments
1 2 3 4 5
accurate
x 4
add to favorites
launch autoscroll
font size
0
reset
how to read this tab
guitar tuner
Tab Pro tools
  • play this tab
  • loop segment
  • change instrument
  • show fretboard
  • metronome
×
Best way to learn
"Witness The Addiction"
Autoscroll
slow
fast
+/-
esc
set tempo
stop
Contributor
Tuning
A E A D F# B
                         WItness The Addiction
                           Suicide Silence

                           Tab by:Emery king

note:this is my first tab so yea!!!!
awsome song by an awsome band...First tab of this song too!!!:D
ENJOY!!!!!

rate!

Drop A tuning  A,E,A,D,G,B...(from top to bottom)

   (0:00-0:08)     both guitars
   ----------------------------------------------------------------------|
   ----------------------------------------------------------------------|
   ----------------------------------------------------------------------|
   ---8~---8-8~-----------------8~---8-8~--------------------------------|
   ---8~---8-8~-----------------8~---8-8~--------------------------------|
   ---8~---8-8~-----------------8~---8-8~--------------------------------|


   (0:08-0:32)     guitar 1
   ----------------------------------------------------------------------|
   ----------------------------------------------------------------------|
   ----------------------------------------------------------------------|
   ---8~---8-8~-----------------8~---8-8~--------------------------------|
   ---8~---8-8~-----------------8~---8-8~--------------------------------|
   ---8~---8-8~-----------------8~---8-8~--------------------------------|

   (0:08-0:32)     guitar 2
   ----------------------------------------------------------------------|
   ----------------------------------------------------------------------|
   ----------------------------------------------------------------------|
   ----------------------------------------------------------------------|
   ---5-9h-0000--9-6---------5-9h-0000--9-6--------- (6x) ---------------|
   --------0000-------------------0000-----------------------------------|
           ****                   ****

   (0:32-0:48)     both guitars
   ----------------------------------------------------------------------|
   ----------------------------------------------------------------------|
   ----------------------------------------------------------------------|
   ----------------------------------------------------------------------|
   ---5-9h-0000--9-6---------5-9h-0000--9-6--------- (9x) ---------------|
   --------0000-------------------0000-----------------------------------|
           ****                   ****

   (0:48-1:23)     both guitars        ==11s not 1==
   ----------------------------------------------------------------------|
   ----------------------------------------------------------------------|
   ----------------------------------------------------------------------|
   ----------------------------------------------------------------------|
   --111111111111-11-11-11--111111111111-11-11-11--111111111111-11-11-11-|
   --111111111111-11-11-11--111111111111-11-11-11--111111111111-11-11-11-|
     ************ ** ** **  ************ ** ** **  ************ ** ** **

   ----------------------------------------------------------------------|
   ----------------------------------------------------------------------|
   ----------------------------------------------------------------------|
   ----------------------------------------------------------------------|
   ---11/9/11111111111-11-11-11---11/999999999999-99-99-99-- (4x) -------|
   ---11/9/11111111111-11-11-11---11/999999999999-99-99-99---------------|
      ** * *********** ** ** **   ** ************ ** ** **

   (1:24-1:32)     guitar 1
   ----------------------------------------------------------------------|
   ----------------------------------------------------------------------|
   ----------------------------------------------------------------------|
   ---8~---8-8~-----------------8~---8-8~--------------------------------|
   ---8~---8-8~-----------------8~---8-8~--------------------------------|
   ---8~---8-8~-----------------8~---8-8~--------------------------------|

   (1:24-1:32)     guitar 2
   ----------------------------------------------------------------------|
   ----------------------------------------------------------------------|
   ----------------------------------------------------------------------|
   ----------------------------------------------------------------------|
   ---5-9h-0000--9-6---------5-9h-0000--9-6--------- (2x) ---------------|
   --------0000-------------------0000-----------------------------------|
           ****                   ****

   (1:32-1:46)     both guitars        ==pretty sure this part is wrong==
   ----------------------------------------------------------------------|
   ----------------------------------------------------------------------|
   ----------------------------------------------------------------------|
   ----------------------------------------------------------------------|
   ---7-5-7-10-9-7~~--------------7-5-7-10-9-5~~--------- (2x) ----------|
   ---7-5-7-10-9-7~~--------------7-5-7-10-9-5~~-------------------------|

   (1:47-2:20)-chorus   both guitars         ==1s==
   ----------------------------------------------------------------------|
   ----------------------------------------------------------------------|
   ----------------------------------------------------------------------|
   ---11111111-44444444-55555555555555-22--------------------------------|
   ---11111111-44444444-55555555555555-22--------------------------------|
   ----------------------------------------------------------------------|

   ----------------------------------------------------------------------|
   ----------------------------------------------------------------------|
   ----------------------------------------------------------------------|
   ---11111111-44444444-11111111-----------------------------------------|
   ---11111111-44444444-11111111-1-1-1-1-1-1-1-1---------- (2x) ---------|
   ------------------------------1-1-1-1-1-1-1-1-------------------------|
                                 * * * * * * * *

   (2:20-2:55)     both guitars        ==11s not 1==
   ----------------------------------------------------------------------|
   ----------------------------------------------------------------------|
   ----------------------------------------------------------------------|
   ----------------------------------------------------------------------|
   --111111111111-11-11-11--111111111111-11-11-11--111111111111-11-11-11-|
   --111111111111-11-11-11--111111111111-11-11-11--111111111111-11-11-11-|
     ************ ** ** **  ************ ** ** **  ************ ** ** **

   ----------------------------------------------------------------------|
   ----------------------------------------------------------------------|
   ----------------------------------------------------------------------|
   ----------------------------------------------------------------------|
   ---11/9/11111111111-11-11-11---11/999999999999-99-99-99-- (4x) -------|
   ---11/9/11111111111-11-11-11---11/999999999999-99-99-99---------------|
      ** * *********** ** ** **   ** ************ ** ** **

   (2:55-3:03)     guitar 1
   ----------------------------------------------------------------------|
   ----------------------------------------------------------------------|
   ----------------------------------------------------------------------|
   ---8~---8-8~-----------------8~---8-8~--------------------------------|
   ---8~---8-8~-----------------8~---8-8~--------------------------------|
   ---8~---8-8~-----------------8~---8-8~--------------------------------|

   (2:55-3:03)     guitar 2
   ----------------------------------------------------------------------|
   ----------------------------------------------------------------------|
   ----------------------------------------------------------------------|
   ----------------------------------------------------------------------|
   ---5-9h-0000--9-6---------5-9h-0000--9-6--------- (2x) ---------------|
   --------0000-------------------0000-----------------------------------|
           ****                   ****

   (3:03-3:15)     both guitars        ==pretty sure this part is wrong==
   ----------------------------------------------------------------------|
   ----------------------------------------------------------------------|
   ----------------------------------------------------------------------|
   ----------------------------------------------------------------------|
   ---7-5-7-10-9-7~~---7-5-7-10-9-5~~---7-5-7-10-9-7~~-------------------|
   ---7-5-7-10-9-7~~---7-5-7-10-9-5~~---7-5-7-10-9-7~~-------------------|

   (3:15-3:47)     both guitars        ==pretty sure this part is wrong==
   ----------------------------------------------------------------------|
   ----------------------------------------------------------------------|
   ----------------------------------------------------------------------|
   ----------------------------------------------------------------------|
   ---7-5-7-10-9-7-5~~--7-5~~---7-5-7-10-9-7-5~~--7-5~~--7-5~~-- (2x) ---|
   ---7-5-7-10-9-7-5~~--7-5~~---7-5-7-10-9-7-5~~--7-5~~--7-5~~-----------|

   (3:48-4:01)     both guitars
   ----------------------------------------------------------------------|
   ----------------------------------------------------------------------|
   ----------------------------------------------------------------------|
   ----------------------------------------------------------------------|
   ---0000---7-5~~--7-5~~--- (3x) ----0000-------------------------------|
   ---0000---7-5~~--7-5~~-------------0000-------------------------------|
      ****                            ****

   (4:01-4:09)     guitar 1
   ----------------------------------------------------------------------|
   ----------------------------------------------------------------------|
   ----------------------------------------------------------------------|
   ---8~---8-8~-----------------8~---8-8~--------------------------------|
   ---8~---8-8~-----------------8~---8-8~--------------------------------|
   ---8~---8-8~-----------------8~---8-8~--------------------------------|

   (4:01-4:09)     guitar 2
   ----------------------------------------------------------------------|
   ----------------------------------------------------------------------|
   ----------------------------------------------------------------------|
   ----------------------------------------------------------------------|
   ---5-9h-0000--9-6---------5-9h-0000--9-6--------- (2x) ---------------|
   --------0000-------------------0000-----------------------------------|
           ****                   ****

   (4:10-4:25)     both guitars        ==pretty sure this part is wrong==
   ----------------------------------------------------------------------|
   ----------------------------------------------------------------------|
   ----------------------------------------------------------------------|
   ----------------------------------------------------------------------|
   ---7-5-7-10-9-7~~--------------7-5-7-10-9-5~~--------- (2x) ----------|
   ---7-5-7-10-9-7~~--------------7-5-7-10-9-5~~-------------------------|

   (4:25-4:58)-chorus   both guitars         ==1s==
   ----------------------------------------------------------------------|
   ----------------------------------------------------------------------|
   ----------------------------------------------------------------------|
   ---11111111-44444444-55555555555555-22--------------------------------|
   ---11111111-44444444-55555555555555-22--------------------------------|
   ----------------------------------------------------------------------|

   ----------------------------------------------------------------------|
   ----------------------------------------------------------------------|
   ----------------------------------------------------------------------|
   ---11111111-44444444-11111111-----------------------------------------|
   ---11111111-44444444-11111111-1-1-1-1-1-1-1-1---------- (2x) ---------|
   ------------------------------1-1-1-1-1-1-1-1-------------------------|
                                 * * * * * * * *
   (4:58-5:17)     both guitars
   ----------------------------------------------------------------------|
   ----------------------------------------------------------------------|
   ----------------------------------------------------------------------|
   ---8~---8-8~-----------------8~---8-8~~~~~~~--------------------------|
   ---8~---8-8~-----------------8~---8-8~~~~~~~--------------------------|
   ---8~---8-8~-----------------8~---8-8~~~~~~~--------------------------|



                          THATS ALL!!!!!!!!!
comments
print report bad tab
4 comments total. Showing first comments.
0 reply
BMTHfan720 wrote on February 8 2012, 08:42 pm

Is this a ****ing joke?

0 reply
fiddlesworth4 wrote on February 24 2012, 05:22 pm

haha i know it sucks...i was stoned and thought it sounded good...my bad

0 reply
jake7391 wrote on July 27 2014, 05:09 pm

B VERSE
F(figure out Palm mutes
D
A-(2×)
E-33333- 22222 11111
A-33333-3-4-3-4-3-4-22222-2-3-2-3-2-3-11111-1-2-1-2-1-2

I want to post or [tab]
guest
You may want to rate the tab now too:
select rating
Please do not post tabs as comments. Select "correction" instead!